Mogwai - I Love You I Want To Blow Up Your School Text Guitar Tab

Learn the song with the online tablature player
I Love You...
Bass Intro

G---7h9-9-9h11-----7h9/12-11-----7h9-9-9h11--16p14-11---12p11-7------14-|
D-----------------------------------------------------------------------|
A---------------------------------------------------------------5-------|
D-0--------------0------------0--------------0----------0--------0------|

G---7h9/11-------9h11-11h12p11p9-7----7h9-9-9h11---16p14-11--12p11-11h12p11-7---|
D-0--------0-----0-------------------------------------------------0------------|
A-----------5-------------------------------------------------------------------|
D------------9----------------------0--------------0---------0--------------0---|

Bass Verse
(Im not sure of the exact bass under it till about 2:27 but this kind of fits for most of it)

G-------------------|
D-----0-------0-----|
A---5--5-----5-5----|
D-0--0--0-0-0---0-0-|

Guitar verse(1:13)

Mostly kind of noodling, plus theres 2 guitars just playing
over each other but play this to get a feel for it.
e----------------------------------------------------------------------------------|
b--------------------------------------10-10-------10-10-------10-10---------------|
G--7-7-7-7-7-7-7-7-7-7--2/3-5/7--7-7-7-------7-7-7-------7-7-7--------7-7p5-5h7--7-|
D-0-0-0-0-0-0-0-0-0-0-0-0---0---0-0-0----0--0-0-0-0--0--0-0-0-0--0--0--0---0---0---|
A----------------------------------------------------------------------------------|
E----------------------------------------------------------------------------------|

just a crazy amount of noodling on that D shape sequence, theres a bit of shift
at 2:27 that goes

Bass Bridge

G----------|  |---------|
D-----0----|  |---0-----|
A---5--5-5-|  |--5--5-5-|
D-7-----7--|x4|-5----5--|x2

Guitar at this point goes
e------------------------------------------------------------------|
b------------------------------------------------------------------|
G--9--10--9----9--10--9----9--10--9----9--10--9--7--7--7--7----2---|
D------------------------------------------------------------------|
A------------------------------------------------------------------|
E------------------------------------------------------------------|

then back to the main riffs. This bridge happens again at 2:53 minus the guitar.

Then the build up

Bass Build up

G-12h14--14--14h15p14-12-14-12-10p9----7---10p9---7--|
D------0----0----------------------------------------|
A----------------------------------------------------|
D-0-------------------0-------------0----0------0--0-|

guitar build up(3:29)
again its some noodling but mostly

e--------------------------------------------------------------|
b--------------------------------------------------------------|
G--14--14--14--14--12--12-12--12--10--10--10--10--10--9-9-7-7--|
D----0----0---0--0---0---0---0--0---0---0---0---0---0--0-0-0-0-|
A--------------------------------------------------------------|
E--------------------------------------------------------------|x2

THEN the guitar starts playing the bass riff EXACTLY so just play that until..

Guitar Breakdown(not sure about what bass plays here)
the first half of this bit is played a little at 4:19,
but the whole thing is played at 4:45)

e---------------------------------------------------|
b---------------------------------------------------|
G--7p5--5p3--3p2-2p0--5h7--5h7--9h10-10-10-10-10p7--|
D-----0----0----0---0----0----0-------------------0-|
A---------------------------------------------------|
E---------------------------------------------------|

Bass plays a little breakdown on it's own

G---5h7-7-7p5-5h8-8-8-8-8-8---9h109--5-5h7--|
D-----------------------------0----------0--|
A-------------------------------------------|
D-------------------------------------------|

Guitar plays a little Question on it's own

e-----------------------------------------------------|
b-----------------------------------------------------|
G--12h14-14-14p12-12-12h15-15-15-15-15-15-15-15-15-15-|
D-----------------------------------------------------|
A-----------------------------------------------------|
E-----------------------------------------------------|

Bass answers with this riff repeat just at the end

G--9h109--5-5h7--|
D--0----------0--|
A----------------|
D----------------|

bit more noodling then(5:32) the drums hit the highhats and the last build up begins

The bass and guitar is playing(with some variations)

G--12h14-14-14-14p12-12-12-12h15-15-15-15p14-14-14-|
D--0-----0--0--0-----0--0--0-----0--0--0-----0--0--|
A--------------------------------------------------|
D--------------------------------------------------|

until just before the big explosion the bass plays

G--9h109--5-5h7--|
D--0----------0--|
A----------------|
D----------------|