Mogwai - Letters To The Metro Text Guitar Tab

Learn the song with the online tablature player
Letters to the Metro ~ Mogwai

1:08 - 1:38:
E|-------------------------------|
B|-6\5-5---6\5-5---6\5-----6\5---|
G|---------------------5-------5-|
D|-------------------------------|
A|-------------------------------|
e|-------------------------------|

E|-------------------------------|
B|-6/8-5---6\5-5---6\5-----6\5---|
G|---------------------5-------5-|
D|-------------------------------|
A|-------------------------------|
e|-------------------------------|

2:13 - 3:15:
E|-------------------------------|
B|-6\5-5---6\5-5---6\5-----6\5---|
G|---------------------5-------5-|
D|-------------------------------|
A|-------------------------------|
e|-------------------------------|

E|-------------------------------|
B|-6/8-5---6\5-5---6\5-----6\5---|
G|---------------------5-------5-|
D|-------------------------------|
A|-------------------------------|
e|-------------------------------|

E|-------------------------------|
B|-6/8-5---6\5-5---6\5-----6\5---|
G|---------------------5-------5-|
D|-------------------------------|
A|-------------------------------|
e|-------------------------------|

E|-------------------------------|
B|-6/8-5---6\5-5---6\5-----6\5---|
G|---------------------5-------5-|
D|-------------------------------|
A|-------------------------------|
e|-------------------------------|

3:51 - 4:17:
E|-13\12-12---13\12-12---13\12------13\12----|
B|-----------------------------13---------13-|
G|-------------------------------------------|
D|-------------------------------------------|
A|-------------------------------------------|
e|-------------------------------------------|

E|-13/15-12---13\12-12---13\12----|
B|-----------------------------13-|
G|--------------------------------|
D|--------------------------------|
A|--------------------------------|
e|--------------------------------|