Mogwai - Take Me Somewhere Nice Text Guitar Tab

Learn song with the online tabulature player
This is the correct way to play "Take Me Somewhere Nice" by Mogwai.
It is a really cool and easy song to play.

Tuning = Drop D

E-----------------------------------------------------|
B-----------------------------------------------------|
G-----------------------------------------------------|* Repeats
D-------4---4-------4---4/7-----7---7-------7---7-----|*   4x
A-----0---0---0---0---0-------4---4---4---4---4---4---|
D---0-----------0-----------4-----------4-------------|

E----------------------------------------------------------------------|
B----------------------------------------------------------------------|
G----------------------------------------------------------------------|
D-------4---4-------4---4/7-----7---7-------7---7/11-----11---11-------|
A-----0---0---0---0---0-------4---4---4---4---4--------9----9----9-----|
D---0-----------0-----------4-----------4------------9-------------9---|

E----------------------------------------------------------------------|
B----------------------------------------------------------------------|
G----------------------------------------------------------------------|
D-----11---11--------7---7-------7---7-------11---11-------11---11-----|
A---9----9----9----5---5---5---5---5---5---9----9----9---9----9----9---|
D----------------5-----------5-----------9-------------9---------------|

E-----------------------------|
B-----------------------------|
G-----------------------------|
D-------7---7-------7---7-----|
A-----5---5---5---5---5---5---|
D---5-----------5-------------|

After that it basically just repeats itself over and over.  Its sounds really
cool and is one of my favorite songs to play.  Sounds best on acoustic.  Hope you
enjoy it.  If theres anything wrong with it or you have a better way of improving
or you just want to comment on it email me: Anatidaeph0bia@hotmail.com.