Mogwai - The Sun Smells Too Loud Text Guitar Tab

Learn the song with the online tablature player
                             Sun Smells Too Loud - Mogwai

Guitar 1 Intro (Clean)
e|---------------------------------------------------------------------------|
B|---------------------------------------------------------------------------|
G|-----2-----2-----2-----2-----2-----2-------2-------2-----------------------|
D|--0-----0-----0-----0-----0-----0------0-------0---------------------------|
A|---------------------------------------------------------------------------|
E|---------------------------------------------------------------------------|
Guitar 1 -Rest of Song (mostly)
e|---------------------------------------------------------------------------|
B|---------------------------------------------------------------------------|
G|-----2---2---2---2---2---2---2---2-----------------------------------------|
D|---0---0---0---0---0---0---0---0-----4---4---4---4---4---4---4---4---------|
A|-----------------------------------2---2---2---2---2---2---2---2-----------|
E|---------------------------------------------------------------------------|
continued
e|---------------------------------------------------------------------------|
B|---------------------------------------------------------------------------|
G|---------------------------------------------------------------------------|
D|-----0---0---0---0---0---0---0---0-----------------------------------------|
A|---------------------------------------------------------------------------|
E|---3---3---3---3---3---3---3---3-------------------------------------------|
Guitar 2 Part 1 (Distorted)
e|---------------------------------------------------------------------------|
B|---------------------------------------------------------------------------|
G|---------------------------------------------------------------------------|
D|----11-----9---------------------------------------------------------------|
A|------------------9--------------------------------------------------------|
E|---------------------------------------------------------------------------|
Guitar 2 Main Riff
e|---------------------------------------------------------------------------|
B|----7/10--7/12--7\5---7/10--7/12--7\5--------------------------------------|
G|---------------------------------------------------------------------------|
D|---------------------------------------------------------------------------|
A|---------------------------------------------------------------------------|
E|---------------------------------------------------------------------------|

| /  slide up
| \  slide down
| h  hammer-on
| p  pull-off
| ~  vibrato
| +  harmonic
| x  Mute note