Mogwai - Waltz For Aidan Text Guitar Tab

Learn the song with the online tablature player
Intro
Play 2x)
e|-----------------------------------------|
B|-----------------------------------------|
G|-----------------------------------------|
D|-13--------14--------13--------11--------|
A|-12--------12--------12--------11--------|
E|-----0--0------0--0------0--0------0--0--|
   Sounds best to pluck the chords with your fingers and lightly pick the
   E string with your thumb.

Verse
e|------7------------------------7-------|
B|-7/9-----5-----7/9--------7/9-----5----|
G|--------------------9------------------|
D|---------------------------------------|
A|---------------------------------------|
E|---------------------------------------|

                                        Play 2x
e|---------------------------------|---------------|-------------|
B|-7/9-----7/9---------------5-----|----------5----|-------------|
G|------9-------9---8--6--4--------|-8--6--4-------|-8-------9---|
D|---------------------------------|---------------|-------------|
A|---------------------------------|---------------|-------------|
E|---------------------------------|---------------|-------------|

Chorus
Play 2x)
e|-11----9------11----9------7----5------7----5------4------|
B|----------------------------------------------------------|
G|----------------------------------------------------------|
D|----------------------------------------------------------|
A|----------------------------------------------------------|
E|----------------------------------------------------------|

Pre-Verse
e|-7----7----7----7---|
B|--------------------|
G|--------------------|
D|--------------------|
A|--------------------|
E|--------------------|
  You can hear this note after
  snare hits after the chorus

Verse       Play 2x                       Play 2x
e|-----------------------------|------------------------------|
B|-----------------------------|----------5-------------------|
G|-8h9-----9-----8h9-----6-----|-8--6--4--------8--6--4--6----|
D|-----------------------------|------------------------------|
A|-----------------------------|------------------------------|
E|-----------------------------|------------------------------|

Chorus
Play 3x)
e|-11----9------11----9------7----5------7----5------4------|
B|----------------------------------------------------------|
G|----------------------------------------------------------|
D|----------------------------------------------------------|
A|----------------------------------------------------------|
E|----------------------------------------------------------|

Outro
e|-11----9------11----9------7----5------7----5------4------|
B|----------------------------------------------------------|
G|----------------------------------------------------------|
D|----------------------------------------------------------|
A|----------------------------------------------------------|
E|----------------------------------------------------------|
  Repeat as many times as neccesary, increasing the amount of
  time between each repeat. The guitar slowly fades out while
  bass and piano become the prominent instruments and then slowly
  fade out.

e|-7777777777777777777777777-|
B|---------------------------|
G|---------------------------|
D|---------------------------|
A|---------------------------|
E|---------------------------|
          Pick fast
  ^Inbetween repeats of the outro, this is sometimes played