Moist - Tangerine Text Guitar Tab

Learn the song with the online tablature player
Intro/Verse:
    B     B     G     F#
E|-----|-----|-----|-----||
B|-----|-----|-----|-----||
G|--4--|--4--|-----|-----||
D|--4--|--4--|--5--|--4--||
A|--2--|--2--|--5--|--4--||
E|-----|-----|--3--|--2--||

Pre-Chorus
    A     Bb    G     G
E|-----|-----|-----|-----||
B|-----|-----|-----|-----||
G|--2--|--3--|-----|-----||
D|--2--|--3--|--5--|--5--||
A|--0--|--1--|--5--|--5--||
E|-----|-----|--3--|--3--||

Chorus
    E           C     A          E           C     C
E|-----|-----|-----|-----|    |-----|-----|-----|-----|
B|-----|-----|-----|-----|    |-----|-----|-----|-----|
G|--9--|--4--|--5--|--2--| 3x |--9--|--4--|--5--|--5--|
D|--9--|--6--|--5--|--2--|Then|--9--|--6--|--5--|--5--|
A|--7--|--4--|--3--|--0--|    |--7--|--4--|--3--|--3--|
E|-----|-----|-----|-----|    |-----|-----|-----|-----|

Interlude

E|----------------------------||
B|----------------------------||
G|-2~2~22x------7~7~77x-------||
D|-2~2~22x3~3~xx7~7~77x7~7~xx-||
A|-0~0~00x3~3~xx5~5~55x7~7~xx-||
E|--------1~1~xx-------5~5~xx-||

Fill:
   Bb     G     G
E|-----|-----|-----||
B|-----|-----|-----||
G|--3--|-----|-----||
D|--3--|--5--|--5--||
A|--1--|--5--|--5--||
E|-----|--3--|--3--||

Ending
    C
E|-----|     |------------------|
B|-----|     |------------------|
G|--5--|for 4|-----------5~~3~~-|
D|--5--|bars |-2~~~~~~~~~~~~~~~-|
A|--3--|     |-2~~~~~~~~~~~~~~~-|
E|-----|     |-0~~~~~~~~~~~~~~~-|

Here's The Order:

Intro/Verse:(00:14)3x

Pre-Chorus
(00:45)1x

Chorus
(00:55)1x
Intro/Verse:(01:15)3x

Pre-Chorus
(01:45)1x

Chorus
(01:55)1x

Interlude
(02:37)4x 4th Time hold the "D"
Fill:       (02:57)1x

Chorus
(03:05)2x
Ending:     (03:43)1x

The song is mostly strumming
thanks and please rate