Mojo Fury - The Mann Text Guitar Tab

Learn the song with the online tablature player
MOJO FURY - THE MANN

Debut album 'Visiting Hours of a Traveling Circus' out March 2011

INTRO

        Guitar 1 -
        Delay feedback loop in A

        Guitar 2
 e|-------------------------------------------------------------------|
 B|-------------------------------------------------------------------|
 G|-x---x---x---x---x---x---x---x---x---x---x---x---x---x---x---x-----|
 D|-------------------------------------------------------------------|
 A|---x---x---x---x---x---x---x---x---x---x---x---x---x---x---x---x---|
dA|-------------------------------------------------------------------|

e|-------------------------------------------------------------------------------------------------|
B|-------------------------------------------------------------------------------------------------|
G|-14~~~~~-14~~~~~-14~~~~~-14~~~~~-----14b15r14-------14b15r14---15-x---x---x---x---x---x---x---x--|
D|-13~~~~~-13~~~~~-13~~~~~-13~~~~~---13--------13---13--------13-13--------------------------------|
A|-12~~~~~-12~~~~~-12~~~~~-12~~~~~-12-------------12-------------12---x---x---x---x---x---x---x---x|
A|-------------------------------------------------------------------------------------------------|

e|-------------------------------------------------------------------------------------------------|
B|-------------------------------------------------------------------------------------------------|
G|-17~~~~~-17~~~~~-17~~~~~-17~~~~~-----17b18r17-------17b18r17---17-x---x---x---x---x---x---x---x--|
D|-16~~~~~-16~~~~~-16~~~~~-16~~~~~---16--------16---16--------16-16--------------------------------|
A|-15~~~~~-15~~~~~-15~~~~~-15~~~~~-15-------------15-------------15---x---x---x---x---x---x---x---x|
A|-------------------------------------------------------------------------------------------------|

e|-------------------------------------------------------------------------------------------------|
B|-------------------------------------------------------------------------------------------------|
G|-19~~~~~-19~~~~~-19~~~~~-19~~~~~-----19b20r19-------19b20r19---19-x---x---x---x---x---x---x---x--|
D|-18~~~~~-18~~~~~-18~~~~~-18~~~~~---18--------18---18--------18-18--------------------------------|
A|-17~~~~~-17~~~~~-17~~~~~-17~~~~~-17-------------17-------------17---x---x---x---x---x---x---x---x|
A|-------------------------------------------------------------------------------------------------|

e|-----------------------------------------|
B|-----------------------------------------|
G|-20~~~~~~20~~~~~~20~~~~~~20~~~~~~20~~~~~~|
D|-19~~~~~~19~~~~~~19~~~~~~19~~~~~~19~~~~~~|
A|-18~~~~~~18~~~~~~18~~~~~~18~~~~~~18~~~~~~|
A|-----------------------------------------|

e|-------------------------------------------------------------------------------------------------|
B|-------------------------------------------------------------------------------------------------|
G|-14-14-14-14-14-14-14-14-14b15-14-14-14-14-14-14-14-14-14-14-14-14-14-14-14b15-14-14-14-14-14-14-|
D|-------------------------------------------------------------------------------------------------|
A|-12-12-12-12-12-12-12-12-12b13-12-12-12-12-12-12-12-12-12-12-12-12-12-12-12b13-12-12-12-12-12-12-|
A|-------------------------------------------------------------------------------------------------|

VERSE

        Guitar 1
 e|------------------------------------------------------------------------------------------|
 B|------------------------------------------------------------------------------------------|
 G|------------------------------------------------------------------------------------------|
 D|------------------------------------------------------------------------------------------|
 A|-0-0-0-2-2-2-3---------6-6-6-5-5-0-2----------0-0-0-2-2-2-3---------6-6-6-5-5-0-2---------|
dA|-0-0-0-2-2-2-3---------6-6-6-5-5-0-2----------0-0-0-2-2-2-3---------6-6-6-5-5-0-2---------|
    "Has anybody.....    Got directions? Cuz I'm lost and struck down I'm losing patience"

 e|------------------------------------------------------------------------------------------|
 B|------------------------------------------------------------------------------------------|
 G|------------------------------------------------------------------------------------------|
 D|---------------7-7-7-7---------------7-7-7-7----------------7-7-7-7---------------7-7-7-7-|
 A|-0-0-0-2-2-2-3---------6-6-6-5-5-0-2----------0-0-0-2-2-2-3---------6-6-6-5-5-0-2---------|
dA|-0-0-0-2-2-2-3---------6-6-6-5-5-0-2----------0-0-0-2-2-2-3---------6-6-6-5-5-0-2---------|
        "Sell me.....         A way to go...         Any place....         Will do.."

        Guitar 2
e|-------------------------------------------------------------------------------------------------|
B|-------------------------------------------------------------------------------------------------|
G|-14-14-14-14-14-14-14-14-14-14-14-14-14-14-14-14-14-14-14-14-14-14-14-14-14-14-14-14-14-14-14-14-|
D|-------------------------------------------------------------------------------------------------|
A|-12-12-12-12-12-12-12-12-12-12-12-12-12-12-12-12-12-12-12-12-12-12-12-12-12-12-12-12-12-12-12-12-|
A|-------------------------------------------------------------------------------------------------|

CHORUS

        Guitar 1
 e|------------------------------------------------------------------------------|
 B|------------------------------------------------------------------------------|
 G|------------------------------------------------------------------------------|
 D|------------------------------------------------------------------------------|
 A|-12-0-0-10-0-0-12-0-0-15-15-15-15-17-17-17-8-8-8-8-8-8-8-9-5-5-5-5-5-11-11-11-|
dA|-12-0-0-10-0-0-12-0-0-15-15-15-15-17-17-17-8-8-8-8-8-8-8-9-5-5-5-5-5-11-11-11-|
   "Saw a man at a crossroads...     he could have crossed so many times"

 e|------------------------------------------------------------------------------|
 B|------------------------------------------------------------------------------|
 G|------------------------------------------------------------------------------|
 D|------------------------------------------------------------------------------|
 A|-12-0-0-10-0-0-12-0-0-15-15-15-15-17-17-17-8-8-8-8-8-8-8-9-5-5-5-5-5-11-11-11-|
dA|-12-0-0-10-0-0-12-0-0-15-15-15-15-17-17-17-8-8-8-8-8-8-8-9-5-5-5-5-5-11-11-11-|
        "Should have asked him where he was going...    but I had him in my mind"

 e|------------------------------------------------------------------------------|
 B|------------------------------------------------------------------------------|
 G|------------------------------------------------------------------------------|
 D|------------------------------------------------------------------------------|
 A|-12-0-0-10-0-0-12-0-0-15-15-15-15-17-17-17-8-8-8-8-8-8-8-9-5-5-5-5-5-11-11-11-|
dA|-12-0-0-10-0-0-12-0-0-15-15-15-15-17-17-17-8-8-8-8-8-8-8-9-5-5-5-5-5-11-11-11-|
        "Maybe he was a dream I had...            Maybe he was a sign"

 e|------------------------------------------------------------------------------|
 B|------------------------------------------------------------------------------|
 G|------------------------------------------------------------------------------|
 D|------------------------------------------------------------------------------|
 A|-12-0-0-10-0-0-12-0-0-15-15-15-15-17-17-17-8-8-8-8-8-8-8-9-5-5-5-5-5-11-11-11-|
dA|-12-0-0-10-0-0-12-0-0-15-15-15-15-17-17-17-8-8-8-8-8-8-8-9-5-5-5-5-5-11-11-11-|
        "You never know 'cause these things happen     all     the    time"

        Guitar 2
e|-------------------------------------------------------------------------------------------------|
B|-------------------------------------------------------------------------------------------------|
G|-14-14-14-14-14-14-14-14-14-14-14-14-14-14-14-14-14-14-14-14-14-14-14-14-14-14-14-14-14-14-14-14-|
D|-------------------------------------------------------------------------------------------------|
A|-12-12-12-12-12-12-12-12-12-12-12-12-12-12-12-12-12-12-12-12-12-12-12-12-12-12-12-12-12-12-12-12-|
A|-------------------------------------------------------------------------------------------------|

e|-------------------------------------------------------------------------------------------------|
B|-------------------------------------------------------------------------------------------------|
G|-17-17-17-17-17-17-17-17-17-17-17-17-17-17-17-17-19-19-19-19-19-19-19-19-19-19-19-19-19-19-19-19-|
D|-------------------------------------------------------------------------------------------------|
A|-15-15-15-15-15-15-15-15-15-15-15-15-15-15-15-15-17-17-17-17-17-17-17-17-17-17-17-17-17-17-17-17-|
A|-------------------------------------------------------------------------------------------------|

e|-------------------------------------------------------------------------------------------------|
B|-------------------------------------------------------------------------------------------------|
G|-14-14-14-14-14-14-14-14-14-14-14-14-14-14-14-14-14-14-14-14-14-14-14-14-14-14-14-14-14-14-14-14-|
D|-------------------------------------------------------------------------------------------------|
A|-12-12-12-12-12-12-12-12-12-12-12-12-12-12-12-12-12-12-12-12-12-12-12-12-12-12-12-12-12-12-12-12-|
A|-------------------------------------------------------------------------------------------------|

e|-------------------------------------------------------------------------------------------------|
B|-------------------------------------------------------------------------------------------------|
G|-17-17-17-17-17-17-17-17-17-17-17-17-17-17-17-17-12-12-12-12-12-12-12-12-12-12-12-12-12-12-12-12-|
D|-------------------------------------------------------------------------------------------------|
A|-15-15-15-15-15-15-15-15-15-15-15-15-15-15-15-15-10-10-10-10-10-10-10-10-10-10-10-10-10-10-10-10-|
A|-------------------------------------------------------------------------------------------------|

VERSE

        Guitar 1
 e|------------------------------------------------------------------------------------------|
 B|------------------------------------------------------------------------------------------|
 G|------------------------------------------------------------------------------------------|
 D|------------------------------------------------------------7-7-7-7---------------7-7-7-7-|
 A|-0-0-0-2-2-2-3---------6-6-6-5-5-0-2----------0-0-0-2-2-2-3---------6-6-6-5-5-0-2---------|
dA|-0-0-0-2-2-2-3---------6-6-6-5-5-0-2----------0-0-0-2-2-2-3---------6-6-6-5-5-0-2---------|
        "Is the ground getting higher...            "I don't know you (and you don't know me)
     or are the birds flying lower?"             and that's what makes it better"

 e|------------------------------------------------------------------------------------------|
 B|------------------------------------------------------------------------------------------|
 G|------------------------------------------------------------------------------------------|
 D|---------------7-7-7-7---------------7-7-7-7----------------7-7-7-7---------------7-7-7-7-|
 A|-0-0-0-2-2-2-3---------6-6-6-5-5-0-2----------0-0-0-2-2-2-3---------6-6-6-5-5-0-2---------|
dA|-0-0-0-2-2-2-3---------6-6-6-5-5-0-2----------0-0-0-2-2-2-3---------6-6-6-5-5-0-2---------|
        "This whole thing  Give me something to take to make it better
    (this whole thing this whole thing)
                           is heavy on me"

CHORUS

 e|------------------------------------------------------------------------------|
 B|------------------------------------------------------------------------------|
 G|------------------------------------------------------------------------------|
 D|------------------------------------------------------------------------------|
 A|-12-0-0-10-0-0-12-0-0-15-15-15-15-17-17-17-8-8-8-8-8-8-8-9-5-5-5-5-5-11-11-11-|
dA|-12-0-0-10-0-0-12-0-0-15-15-15-15-17-17-17-8-8-8-8-8-8-8-9-5-5-5-5-5-11-11-11-|
   "Saw a man at a crossroads...     he could have crossed so many times"

 e|------------------------------------------------------------------------------|
 B|------------------------------------------------------------------------------|
 G|------------------------------------------------------------------------------|
 D|------------------------------------------------------------------------------|
 A|-12-0-0-10-0-0-12-0-0-15-15-15-15-17-17-17-8-8-8-8-8-8-8-9-5-5-5-5-5-11-11-11-|
dA|-12-0-0-10-0-0-12-0-0-15-15-15-15-17-17-17-8-8-8-8-8-8-8-9-5-5-5-5-5-11-11-11-|
        "Should have asked him where he was going...    but I had him in my mind"

 e|------------------------------------------------------------------------------|
 B|------------------------------------------------------------------------------|
 G|------------------------------------------------------------------------------|
 D|------------------------------------------------------------------------------|
 A|-12-0-0-10-0-0-12-0-0-15-15-15-15-17-17-17-8-8-8-8-8-8-8-9-5-5-5-5-5-11-11-11-|
dA|-12-0-0-10-0-0-12-0-0-15-15-15-15-17-17-17-8-8-8-8-8-8-8-9-5-5-5-5-5-11-11-11-|
        "Maybe he was a dream I had...            Maybe he was a sign"

 e|------------------------------------------------------------------------------|
 B|------------------------------------------------------------------------------|
 G|------------------------------------------------------------------------------|
 D|------------------------------------------------------------------------------|
 A|-12-0-0-10-0-0-12-0-0-15-15-15-15-17-17-17-8-8-8-8-8-8-8-9-5-5-5-5-5--9-10-11-|
dA|-12-0-0-10-0-0-12-0-0-15-15-15-15-17-17-17-8-8-8-8-8-8-8-9-5-5-5-5-5--9-10-11-|
        "You never know 'cause these things happen     all     the    time"

 e|------------------------------------------------------------------------------|
 B|------------------------------------------------------------------------------|
 G|------------------------------------------------------------------------------|
 D|------------------------------------------------------------------------------|
 A|-12-0-0-10-0-0-12-0-0-15-15-15-15-17-17-17-8-8-8-8-8-8-8-9-5-5-5-5-5-11-11-11-|
dA|-12-0-0-10-0-0-12-0-0-15-15-15-15-17-17-17-8-8-8-8-8-8-8-9-5-5-5-5-5-11-11-11-|
 'Saw a man a crossroads he could have crossed!!!........."

OUTRO

        Guitar 1
 e|------------------------------------------------------------|
 B|-------(7)--------------------------(5)---------------------|
 G|-------(7)--------------------------(5)---------------------|
 D|------------------------------------------------------------|
 A|-0-0-----------0-0------------0-0----------0~~~~~~~~~~~~~~~~|
dA|-0-0-----------0-0----12s0----0-0----------0~~~~~~~~~~~~~~~~|

        Guitar 2 (strummed fast)
e|------------------------------------------------------------|
B|------------------------------------------------------------|
G|-21(x12)-------10(x12)-------17(x12)-------12~~~~~~~~~~~~~~~|
D|------------------------------------------------------------|
A|-19(x12)-------18(x12)-------15(x12)-------10~~~~~~~~~~~~~~~|
A|------------------------------------------------------------|

ORDER

LYRICS

Verse 1
        Has anybody got directions?
        Cuz I'm lost and struck down
        And I'm losing patience
        Sell me a way to go
        Any place will do

Chorus
        Saw a man at a crossroads
        He could have crossed so many times
        I should have asked him where he was goin'
        But I had him in my mind
        Maybe he was a dream i had
        Maybe he was a sign
        You never know cuz these things happen all the time

Verse 2
        Is the ground getting higher?
        Or are the birds flying lower?
        I don't know you (and you don't know me)
        And that's what makes it better
        This whole thing (this whole thing this whole thing)
        Is heavy on me
        Give me something to take to make it better

Chorus
        Saw a man at a crossroads
        He could have crossed so many times
        I should have asked him where he was goin'
        But I had him in my mind
        Maybe he was a dream i had
        Maybe he was a sign
        You never know cuz these things happen all the time