Mojofly - Even If Text Guitar Tab

Learn the song with the online tablature player
       Para 'to sa lahat ng naging ka-fling ko sa Cubao at Daraga,
                                     Albay...Luv ya all!!!

Intro
    A Bm C#m D
    A Bm C#m D
    A Bm C#m D
    A Bm C#m D

    e|------------------------------|
    B|------------------------------|
    G|------------------------------| 4x then...
    D|--------------------7---------|
    A|-----4h5/7----(7)-------7-----|
    E|------------------------------|

    e|---9///-12---12//14--9---9-7-9-5-7-----7-9-5-7---|
    B|-----------------------------------5-------------|
    G|-------------------------------------------------|
    D|-------------------------------------------------|
    A|-------------------------------------------------|

    e|---7-9-7------7-9-7------7-9-7-------------------|
    B|---------10---------10-----------10-7-9-10-------|
    G|-------------------------------------------------|
    D|-------------------------------------------------|
    A|-------------------------------------------------|
    E|-------------------------------------------------|

Verse
    A F#m D E
    A F#m D E
    A Bm C#m D  D  E

  I was just wondering what you're doing
  It's been a while since I've seen you
  Another day gone by without you
  Another day of feeling blue
  I never thought it'd be this way
  My image of you changed my world
  But I want you to know

Refrain
    A Bm C#m D
    A Bm C#m D
    Bm F#m Bm E  E

    e|-----------------------------------------------------------------------------------------|
    B|----------------10-7-9-7-9-----------------------------10-7-9-7-9------------------------|
    G|---9--6h7--6h9-------------9--------------9--6h7--6h9-------------9----------------------|
    D|-------------------------------9-h11-9-7------------------------------9-h11-9-7--(7)-----|
    A|-----------------------------------------------------------------------------------------|
    E|-----------------------------------------------------------------------------------------|

  I'm not looking for a one night stand
  Dance with me come closer
  I'll be the best you've ever had
  Cause I've been trying for so long to tell you
  You're the only one for me
  Just say the words and I will be there
  Even if you won't be comin' around

Interlude
    A Bm C#m D
    A Bm C#m D

    e|-----------------------------------------------------------------------------------------|
    B|----------------10-7-9-7-9-----------------------------10-7-9-7-9------------------------|
    G|---9--6h7--6h9-------------9--------------9--6h7--6h9-------------9----------------------|
    D|-------------------------------9-h11-9-7------------------------------9-h11-9-7--(7)-----|
    A|-----------------------------------------------------------------------------------------|
    E|-----------------------------------------------------------------------------------------|

Verse 2
    A F#m D E
    A F#m D E
    A F#m D E
    A F#m D E

  I know I'm not a saint
  But the things you heard about me
  Yeah you know they're not true
  I think about you everyday
  My intentions are clean

 [Repeat Refrain]

Bridge
    A D
    A D
    F#m D E A
    Bm F#m Bm E  E

  Maybe I'm such a dreamer
  But I know I can do this right
  With you there's no tomorrow
  Cause I've been trying for so long to tell you
  You're the only one for me
  Just say the words and I will be there
  Even if you won't be comin' around

Coda
    A Bm C#m D
    A Bm C#m D
    A Bm C#m D
    A Bm C#m D

    e|-----------------------------------------------------------------------------------------|
    B|----------------10-7-9-7-9-----------------------------10-7-9-7-9------------------------|
    G|---9--6h7--6h9-------------9--------------9--6h7--6h9-------------9----------------------|
    D|-------------------------------9-h11-9-7------------------------------9-h11-9-7----------|
    A|-----------------------------------------------------------------------------------------|
    E|-----------------------------------------------------------------------------------------|

  Even if you won't be comin' around
  Even if...

    e|-----------------------------------------------------------------------------------------|
    B|----------------10-7-9-7-9-----------------------------10-7-9-7-9------------------------|
    G|---9--6h7--6h9-------------9--------------9--6h7--6h9-------------9----------------------|
    D|-------------------------------9-h11-9-7------------------------------9-h11-9--9---------|
    A|-----------------------------------------------------------------------------------------|
    E|-----------------------------------------------------------------------------------------|