Moke - Switch Text Guitar Tab

Learn the song with the online tablature player
intro

(Synth)
e---------------------------|----------------------------|
b---------------------------|----------------------------|
g---4---7--5-4----4---7--5--|---4---7--5-4----4---7--9---|
d-5---5---------5---5-------|-5---5---------5---5------9-|
a---------------------------|----------------------------|
E---------------------------|----------------------------|

 Em     C     Am    D        Em      C    Am     D
e------------------------|-------------------------|
b------------------------|-------------------------|
g------------------------|-------------------------|
d----2--------0----------|-----2--------0----/4b~--|
a-------3---0------2-----|--------3---0----------5-|
E-0-------------------3--|-0-----------------------|

 Em     C     Am   D       Em     C     Am     D
e------------------------|-------------------------|
b------------------------|-------------------------|
g------------------------|-------------------------|
d----2--------0----------|-----2--------0----/4b~--|
a-------3---0------2-----|--------3---0------------|
E-0-------------------3--|-0-----------------------|

verse

Em
Time can paint a picture

As your memory fades away

You always spell trouble

As I forget what I meant to say

pre-chorus

            Em              C
And it's so easy, when you want it
     Am                 D
You just reach out and grab it
Em               C
  Just when it's over
      Am                  D
You still can't break the habit
Em                   C         Am        D
  Why must you keep running
Em              C         Am     D
Running never brings you home

chorus

  G
Switch baby switch baby
 F                              Em
You can't seem to make up your mind

 Em
e-----------|------------|
b-----------|------------|
g-----------|------------|
d-----------|------------|
a-----3~--2-|------3~--2-|
E-0---------|-0----------|

  G
Switch baby switch baby
  F                            Em
Thought that we were two of a kind

 Em      C     Am    D
e-------------------------|
b-------------------------|
g-------------------------|
d-----2--------0----/4b~--|
a--------3---0------------|
E-0-----------------------|

(Synth)
e----------------------------|
b----------------------------|
g---4---7--5-4----4---7--9---|
d-5---5---------5---5------9-|
a----------------------------|
E----------------------------|

verse

Em
Innocent and childlike

Angelic the smile on your face

But barren is your wasteland

Gimme help, get me out of this place

pre-chorus

            Em              C
And it's so easy, when you want it
     Am                 D
You just reach out and grab it
Em               C
  Just when it's over
      Am                  D
You still can't break the habit
Em                   C         Am        D
  Why must you keep running
Em              C         Am     D
Running never brings you home

chorus

  G
Switch baby switch baby
 F                              Em
You can't seem to make up your mind

 Em
e-----------|------------|
b-----------|------------|
g-----------|------------|
d-----------|------------|
a-----3~--2-|------3~--2-|
E-0---------|-0----------|

  G
Switch baby switch baby
  F                            Em
Thought that we were two of a kind

Em
e-----------|------------|
b-----------|------------|
g-----------|------------|
d-----------|------------|
a-----3~--2-|------3~--2-|
E-0---------|-0----------|

bridge

 Bm   Bm   Bm   Bm
 Bm   Bm   F#m  F#m
 Bm   Bm   Bm   Bm

(Synth)
e---------------------------|----------------------------|
b---------------------------|----------------------------|
g---4---7--5-4----4---7--5--|---4---7--5-4----4---7--9---|
d-5---5---------5---5-------|-5---5---------5---5------9-|
a---------------------------|----------------------------|
E---------------------------|----------------------------|

------chorus+outro-------

  G
Switch baby switch baby
 F                              Em
You can't seem to make up your mind

 Em
e-----------|------------|
b-----------|------------|
g-----------|------------|
d-----------|------------|
a-----3~--2-|------3~--2-|
E-0---------|-0----------|

  G
Switch baby switch baby
  F                            Em
Thought that we were two of a kind

Em     C     Am    D         Em      C    Am     D
e------------------------|-------------------------|
b------------------------|-------------------------|
g------------------------|-------------------------|
d----2--------0----------|-----2--------0----/4b~--|
a-------3---0------2-----|--------3---0----------5-|
E-0-------------------3--|-0-----------------------|

 Em     C     Am   D       Em     C     Am     D
e------------------------|-------------------------|
b------------------------|-------------------------|
g------------------------|-------------------------|
d----2--------0----------|-----2--------0----/4b~--|
a-------3---0------2-----|--------3---0----------5-|
E-0-------------------3--|-0-----------------------|

 Em     C     Am     D
e-------------------------|
b-------------------------|
g-------------------------|
d-----2--------0----/4b~--|
a--------3---0------------|
E-0-----------------------|

 Em     C     Am       D      Em     C     Am       D
e---------------------------|----------------------------|
b---------------------------|----------------------------|
g---4---7--5-4----4---7-----|---4---7--5-4----4---7--5---|
d-5---5---------5---5-------|-5---5---------5---5--------|
a---------------------------|----------------------------|
E---------------------------|----------------------------|

e----------------------------|
b----------------------------|
g---4---7--5-4----4---7--9---|
d-5---5---------5---5------9-|
a----------------------------|
E----------------------------|

  G
Switch baby switch baby
 F                              Em
You can't seem to make up your mind