Moksha - Forever Never Text Guitar Tab

Learn the song with the online tablature player
Forever Never

Intro

        P.M.            8 times         P.M.    4 times
e|-----------------------------|-----------------------------|
B|-----------------------------|-----------------------------|
G|-----------------------------|-----------------------------|
D|---7---------------5---------|---7-------------------------|
A|-------4---5---7-------7-----|-------4---5-----------------|
E|-----------------------------|-----------------------------|

                        7 times                 8th time riff ends
e|-----------------------------|-----------------------------|
B|-----------------------------|-----------------------------|
G|-----------------------------|-----------------------5-----|
D|---7---------------5---------|---------------5---7---------|
A|-------4---5---7-------7-----|---3---5---7-----------------|
E|-----------------------------|-----------------------------|

e|-----------------------------------------------------------|
B|-------------5---------------5---------------5-------------|
G|---2--2------5-----5-5-------5------7-7------5-------------|
D|---2--2------------5-5--------------7-7--------------------|
A|---0--0------------3-3--------------5-5--------------------|
E|-----------------------------------------------------------|

e|--------------------------------------|
B|--------------------------------------|
G|------7b9----5-----------5------------|
D|-------------------7-----------7------|
A|--------------------------------------|
E|--------------------------------------|

e|-----------------------------------------------------------|
B|-------------5---------------5---------------5-------------|
G|---2--2------5-----5-5-------5------7-7------5-------------|
D|---2--2------------5-5--------------7-7--------------------|
A|---0--0------------3-3--------------5-5--------------------|
E|-----------------------------------------------------------|

e|--------------------------------|
B|--------------------------------|
G|--------------------------------|
D|-------------------5---7--------|
A|------3---5---7-----------------|
E|--------------------------------|

Look at that .......

e|---------------------------------------------------------|
B|-------------------------------------------5(slide up)---|
G|---2--2-----------5-5-------------7-7------5(slide up)---|
D|---2--2-----------5-5-------------7-7--------------------|
A|---0--0-----------3-3-------------5-5--------------------|
E|---------------------------------------------------------|

e|--------------------------------------------------------|
B|--------------------------------------------------------|
G|---2-2-----------5-5-------------7-7--------------------|
D|---2-2-----------5-5-------------7-7--------------------|
A|---0-0-----------3-3-------------5-5--------------------|
E|--------------------------------------------------------|

RIFF A

e|-----------------------------|
B|-----------------------------|
G|-----------------------5-----|
D|---------------5---7---------|
A|---3---5---7-----------------|
E|-----------------------------|

Standing Alone

e|--------------------------------------------------------|
B|--------------------------------------------------------|
G|--------------------------------------------------------|
D|------3------5------------------------------------------|
A|------3------5------------------------------------------|
E|------1------3------------------------------------------|

e|--------------|
B|--------------|
G|--------------|
D|------3-------|
A|------3-------|
E|------1-------|

RIFF B X 2
e|-----------------------------|
B|-----------------------------|
G|-----------------------------|
D|---7---------------5---------|
A|-------4---5---7-------7-----|
E|-----------------------------|

Chorus

e|--------------------------------------------------------|
B|--------------------------------------------------------|
G|---2-2-----------5-5-------------7-7----------7-7-------|
D|---2-2-----------5-5-------------7-7----------7-7-------|
A|---0-0-----------3-3-------------5-5----------5-5-------|
E|--------------------------------------------------------|

Almost Same structure in 2nd Verse...

will tab solo in some time :-)

This is the first time I tabbing something.. so there might be some mistakes :P