Moldy Peaches - Lazy Confessions Text Guitar Tab

Learn song with the online tabulature player
Band: The Moldy Peaches
song: Lazy Confessions


tabbed by jam9383@yahoo.com

Verse

e------------------------------------------------------------------------------------|
B------------------------------------------------------------------------------------|
G----0-----0-----0-----0-------------------------------------------------------------|
D-2-----2-----0-----0----------------------------------------------------------------|
A------------------------------------------------------------------------------------|
E------------------------------------------------------------------------------------|

Chorus

e--5--5--5--5------------------------------------------------------------------------|
B--5--5--5--5----7--7--7--7---9---9----7-7-7-7----9---9---7-7-7-7--------------------|
G--6--6--6--6----7--7--7--7---9---9----7-7-7-7----9---9---7-7-7-7--------------------|
D--7--7--7--7----7--7--7--7---9---9----7-7-7-7----9---9---7-7-7-7--------------------|
A--7--7--7--7----5--5--5--5---7---7----5-5-5-5----7---7---5-5-5-5--------------------|
E--5--5--5--5------------------------------------------------------------------------|

thats it'