Molotov Solution - Corporatocracy Text Guitar Tab

Learn the song with the online tablature player
I used a 7 string but they may play six strings

guitar 1
|-----------------------------------------------------|
|-----------------------------------------------------|
|-----------------------------------------------------|
|-----------------------------------------------------|
|-----------------------------------------------------|
|-5--------3h5---5h6---6h9-5--------5h6p5h6-9h10p9h10-|
|---000000-----0-----0-------000000-------------------|
    ......     .     .       ......

guitar 2
|-----------------------------------------------------|
|-----------------------------------------------------|
|-----------------------------------------------------|
|-----------------------------------------------------|
|-----------------------------------------------------|
|-----------------------------------------------------|
|-0---------------------------------------------------|

guitar 1
|-----------------------------------------------------|
|-----------------------------------------------------|
|-----------------------------------------------------|
|-----------------------------------------------------|
|----------------------(     tremolo picking  )-------|
|-5--------3h5---5h6---999101010999666999666555-5h6-3-|
|---000000-----0-----0--------------------------------|
    ......     .     .

guitar 2
|-----------------------------------------------------|
|-----------------------------------------------------|
|-----------------------------------------------------|
|-----------------------------------------------------|
|-----------------------------------------------------|
|-----------------------------------------------------|
|-----------------------------------------------------|

guitar 1
|-----------------------------------------------------|
|-----------------------------------------------------|
|-----------------------------------------------------|
|-----------------------------------------------------|
|-----------------------------------------------------|
|-5--------3h5---5h6---6h9-5--------5h6p5h6-9h10p9h10-|
|---000000-----0-----0-------000000-------------------|
    ......     .     .       ......

guitar 2
|-----------------------------------------------------|
|-----------------------------------------------------|
|-----------------------------------------------------|
|-----------------------------------------------------|
|-----------------------------------------------------|
|-----------------------------------------------------|
|-0------------------------0--------------------------|

guitar 1
|-----------------------------------------------------|
|-----------------------------------------------------|
|-----------------------------------------------------|
|-----------------------------------------------------|
|----------------------(     tremolo picking  )-------|
|-5--------3h5---5h6---999101010999666999666555-6bend-|
|---000000-----0-----0--------------------------------|
    ......     .     .

guitar 2
|-----------------------------------------------------|
|-----------------------------------------------------|
|-----------------------------------------------------|
|-----------------------------------------------------|
|----------------------(     tremolo picking  )-------|
|-0~-------------------999101010999666999666555-6bend-|
|-0~--------------------------------------------------|

both guitars x2
|-----------------------------------------------------|
|-----------------------------------------------------|
|-----------------------------------------------------|
|-----------------------------------------------------|
|-----------------------------------------------------|
|-5--------3h5---5h6---6h9-5--------5h6p5h6-9h10p9h10-|
|---000000-----0-----0-------000000-------------------|
    ......     .     .       ......

|-----------------------------------------------------|
|-----------------------------------------------------|
|-----------------------------------------------------|
|-----------------------------------------------------|
|----------------------(     tremolo picking  )-------|
|-5--------3h5---5h6---999101010999666999666555-5h6-3-|
|---000000-----0-----0--------------------------------|
    ......     .     .

both guitars x2
|---------------------------------------------------------------------|
|---------------------------------------------------------------------|
|---------------------------------------------------------------------|
|---------------------------------------------------------------------|
|-7--------7----78------11------11/12\11--------8----87------7/8\7-32-|
|-5--------5----56-------9-------9/10\-9--------6----65------5/6\5-32-|
|---000000---00----0000----0000----------000000---00----0000----------|
    ......   ..    ....    ....          ......   ..    ....       ..

both guitars x2
|-----------------------------------------------------|
|-----------------------------------------------------|
|-----------------------------------------------------|
|-----------------------------------------------------|
|-----------------------------------------------------|
|-5--------3h5---5h6---6h9-5--------5h6p5h6-9h10p9h10-|
|---000000-----0-----0-------000000-------------------|
    ......     .     .       ......

|-----------------------------------------------------|
|-----------------------------------------------------|
|-----------------------------------------------------|
|-----------------------------------------------------|
|----------------------(     tremolo picking  )-------|
|-5--------3h5---5h6---999101010999666999666555-5h6-3-|
|---000000-----0-----0--------------------------------|
    ......     .     .

this is all I'm posting for now, I almost have the whole song minus a few
parts and I'll post it as soon as I'm sure it's right, look for update soon

please rate