Mommas Liquor Cabinet - Jareds Song Text Guitar Tab

Learn song with the online tabulature player
This is "Jareds song" by the band Momma's Liquor Cabinet.
Copyright 2002

Should be played with an acoustic or undistorted electric.

INTRO(2x):

-----------------------
------5------0------0--
----6------4-------2---
--6------4-------2-----
4------2-------0-------
-----------------------

VERSE:

(Strum up and down)
--0--0000000----0--0000000---0--0000000------------
--5--5555555----0--0000000---0--0000000------------
--6--6666666/---4--4444444---2--2222222------------
--6--6666666/---4--4444444/--2--2222222------------
--4--4444444/---2--2222222/--0--0000000------------
--0-------------0------------0--0000000------------


CHORUS:

--4--4444444----2--2222222---0--0000000--X--2222---00000---
--4--4444444----2--2222222---0--0000000--X--2222---00000---
--6--6666666/---4--4444444---2--2222222--X--4444---22222---
--6--6666666/---4--4444444/--2--2222222--X--4444---22222---
--4--4444444/---2--2222222/--0--0000000--X--2222---00000---
--4--4444444----2--2222222---0--0000000--X--2222---00000---

VERSE...

CHORUS...

OUTRO:

---------------------------------------------------------0-
------5------0-------0------0-------5-------0-------0----0-
----6------4-------2------2-------6-------4-------2------2-
--6------4-------2------2-------6-------4-------2--------2-
4------2-------0------O-------4-------2-------0----------0-
---------------------------------------------------------0-