Mona - Alibis Text Guitar Tab

Learn song with the online tabulature player
-----------------------------------------------------------------------------
                             ALIBIS - Mona
-----------------------------------------------------------------------------
Tabbed by:Dariusz
Email:none

Tuning: standard

Below riff played during intro and chorus:

    D                         D7

E----------------------------------------------|
H----------------------------------------------|
G--------7-----------7-----------5-----------5-|
D-----7-----7-----7-----------7-----7-----7----|
A--5-----------5-----------5-----------5-------|
E----------------------------------------------|


    G
E----------------------------------------------|
H----------------------------------------------|
G--------4-----------4-----------4-----------4-|
D-----5-----5-----5-----5-----5-----5-----5----|
A----------------------------------------------|
E--3-----------3-----------3-----------3-------|

Play the same chords during verses. You can also try to use open D / D7 / G chords.
Not sure about the bridge after 2:04...But above chords/tab are basically thoe whole song.