Moneen - The Way Text Guitar Tab

Learn song with the online tabulature player
|-----------------------------------------------------------------|
|-------------------------2-------3---------------3---------------|
|-2-------4-------5-----------------0-----------0---0-----------0-|
|---0---0---0---0---0---0---0---0-----0-------0-------0-------0---|
|-----0-------0-------0-------0---------0---0-----------0---0-----|
|-----------------------------------------0---------------0-------|

|------------------------7-------3---------------3----------------|
|-9------7-------5---------0--------------------------------------|
|---0------0-------0---------------0-----------0----0-----------0-|
|------------------------------0-----0-------0--------0-------0---|
|-------0------0-------0-----7---------3---0------------0---0-----|
|-----9------7-------5-------------------0----------------0-------|