Moneen - Wrath Of The Donkey Text Guitar Tab

Learn the song with the online tablature player
                             Wrath of the Donkey - Moneen

e|---------------------------------------------------------------------------|
B|---------------------------------------------------------------------------|
G|--------------------------------9--8--6--8--4--6---------------------------|
D|--------------------------------x--x--x--x--x--x--7------------------------|
A|--7--6--4--6--2--4--------------7--6--4--6--2--4--x------------------------|
E|--------------------5-----------x--x--x--x--x--x--5------------------------|

e|---------------------------------------------------------------------------|
B|---------------------------------------------------------------------------|
G|--9--11-14-16-13-11-14-----------------------------------------------------|
D|--x--x--x--x--x--x--x---~14~-----------------------------------------------|
A|--7--9--12-14-11-9--12-----------------------------------------------------|
E|--x--x--x--x--x--x--x------------------------------------------------------|

| /  slide up
| \  slide down
| h  hammer-on
| p  pull-off
| ~  vibrato
| +  harmonic
| x  Mute note