Monkees - For Petes Sake Text Guitar Tab

Learn the song with the online tablature player
Subject: Chords: For Pete's Sake (Monkees)

Written by:  P.Tork & J.Richards
>From the 1967 Album "Headquarters"
Colgems Records COS#103

Intro Riff

e---5--3-------|-------------|
B---5----5--3--|-------------|
G--------------|-5-----------|
D--------------|-------------|
A--------------|-------------|
E--------------|-------------|
    1  2 3  4    1 (drum fill)

Am            D                   Am                D
Love is under-standing, don't you know that this is true?
Am            D                 E
Love is under-standing, it's in everything we do.

Am            D      Am             D
In this gener-ation, in this loving time.
Am            D              E
In this gener-ation, we will make the world-a shine.

A               D
We were born to love one another,
A                 E      D
This is something we all need.
A               D
We were born to love one another,
E                     Fmaj7
We must be what we're going to be,
D                   E
And what we have to be is  --
Am  Amsus4  Am  Amsus4  Am  Cadd9 Am
Free.

Repeat verse & chorus above, then fade over chords below:

   Am  Amsus4 Am Amsus4 Am  Cadd9 Am
E----0----0----0----0----0----0----0---|
B----1----3----1----3----1----1----1---|
G----2----2----2----2----2----0----2---|
D----2----2----2----2----2----0----2---|
A----0----0----0----0----0----x----0---|
E--------------------------------------|
                             (Hammer)