Monkees - Stepping Stone Text Guitar Tab

Learn the song with the online tablature player
This is Stepping stone by one of my favorite bands as a kid.
its off of the greatest hits album.

 (b) bend
 (pm) palm mute

         1st part/intro/verse

(pm)            (repeat how ever many times)
e|-----------------------------------------------------------------|
b|-----------------------------------------------------------------|
g|-----------------------------------------------------------------|
d|-----------------------------------------------------------------|
a|-----------------------------------------------------------------|
e|---0--0-0---3--3-3---5---5-b6-5-3--------------------------------|

   (no palm mute)  chords      (repeat however many times)
e|-----------------------------------------------------------------|
b|-----------------------------------------------------------------|
g|-----------------------------------------------------------------|
d|---2--2-2---5--5-5---7--7-b8-7-5---------------------------------|
a|---2--2-2---5--5-5---7--7-b8-7-5---------------------------------|
e|---0--0-0---3--3-3---5--5-b6-5-3---------------------------------|

                2nd part/chorus/outro
   (pm)
e|-----------------------------------------------------------------|
b|-----------------------------------------------------------------|
g|-----------------------------------------------------------------|
d|-----------------------------------------------------------------|
a|-----------------------------------------------------------------|
e|---0---0-3-5-3-0-------------------------------------------------|

    no palm mute      chords
e|-----------------------------------------------------------------|
b|-----------------------------------------------------------------|
g|-----------------------------------------------------------------|
d|---2---2-5-7-5--2------------------------------------------------|
a|---2---2-5-7-5--2------------------------------------------------|
e|---0---0-3-5-3--0------------------------------------------------|