Monkey Majik - Change Live Text Guitar Tab

Learn the song with the online tablature player
                             CHANGE - Monkey Majik

Album: Sorahamarude/Sora Wa Marude

Rhythm:
e|--77---66---44--4----|
B|--99---77---55--4----|
G|--88---66---44--4----|
D|--99---88---66--6----|
A|--77---66---44--6----|
E|----------------4----|

As always, progression/timing/etc. is for you to find out. Well, not find out, seeing as
how the song tells you, but well.. just play the chords and listen to the song, and add
in some palm-muted strums after 466444 (Gsharp)

Lead:
e|------7--9---7---9---7---11---7------|
B|----9--9---9---9---9---9----9----9---|
G|-------------------------------------|
D|-------------------------------------|
A|-------------------------------------|
E|-------------------------------------|

Chorus
only rhythm changes, everything else is the same)
e|----xxxx---11-11----xxxx--11-11------xxxx----11-11----xxxx-----11-11--|
B|----xxxx---12-12----xxxx--12-12------xxxx----12-12----xxxx-----12-12--|
G|----xxxx---13-13----xxxx--13-13------xxxx----13-13----xxxx-----13-13--|
D|----xxxx---13-13----xxxx--13-13------xxxx----13-13----xxxx-----13-13--|
A|----xxxx---11-11----xxxx--11-11------xxxx----11-11----xxxx-----11-11--|
E|----xxxx------------xxxx-------------xxxx-------------xxxx------------|

Continued
e|---9---9-------11-------xxxx--11--|
B|---9---9-------11-------xxxx--12--|
G|---9---9-------11-------xxxx--13--|
D|---9---9-------11-------xxxx--13--|
A|---11--11------13-------xxxx--11--|
E|---9---9-------11-------xxxx------|

| /   slide up
| \   slide down
| h   hammer-on
| p   pull-off
| ~   vibrato
| +   harmonic
| x   Mute note
| b   Bend
| pb  Pre-bend
| br  Bend release
| pbr Pre-bend release
| brb Bend release bend