Monkeysoop - Wolfsbane Text Guitar Tab

Learn the song with the online tablature player
Band-Monkeysoop
Song-Wolfsbane
Cd-Experimetal

e------------------------------------------------------------------|
b------------------------------------------------------------------|
g------------------------------------------------------------------|
d----0---2---3---2---0---5---3---2---0---2---3---2---0---5---3---2-|
a---0---0---0---0---0---0---0---0---0---0---0---0---0---0---0---0--|
e--0---0---0---0---0---0---0---0---0---0---0---0---0---0---0---0---|

e------------------------------------------------------------------|
b------------------------------------------------------------------|
g-----2---0-----------2---0----------2---0-----------2---0---------|
d------------3---2-----------3---2-----------3---2-----------3---2-|
a---0---0---0---0---0---0---0---0---0---0---0---0---0---0---0---0--|
e--0---0---0---0---0---0---0---0---0---0---0---0---0---0---0---0---|

e------------------------------------------------------------------|
b------------------------------------------------------------------|
g------------------------------------------------------------------|
d----0---2---3---2---0---5---3---2---0---2---3---2---0---5---3---2-|
a---0---0---0---0---0---0---0---0---0---0---0---0---0---0---0---0--|
e--0---0---0---0---0---0---0---0---0---0---0---0---0---0---0---0---|

e------------------------------------------------------------------|
b------------------------------------------------------------------|
g-----2---0-----------2---0----------2---0-----------2---0---------|
d------------3---2-----------3---2-----------3---2-----------3---2-|
a---0---0---0---0---0---0---0---0---0---0---0---0---0---0---0---0--|
e--0---0---0---0---0---0---0---0---0---0---0---0---0---0---0---0---|

Solo?
Part2x2
e-------------------------------------------------------------------|
b-------------------------------------------------------------------|
g-------------------7-5------------------9-7----------11-9----------|
d------3-2--------6----6-------3-2------8---8-------10----10--------|
a-----2---3-4--0-5-------7----2---3--0-7------7--0-9---------11-----|
e-0-1----------------------0-1--------------------------------------|

part3x4
e-------------------------------------------------------------------|
b-------------------------------------------------------------------|
g-------------------------------------------------------------------|
d------------------------2--0---------------------------------------|
a-------2----------2------------2--0--------------------------------|
e--0--1---3---0--1---3----------------------------------------------|

Part2x2
Part3x4
Solo?
Rest of song?