Mononc Serge - Les Patates Text Guitar Tab

Learn the song with the online tablature player
Band : Anonymus & Mononc Serge
Song : Les Patates
Album : L'académie Du Massacre

    2,3,4
e|---------------------------------|---------------------------------|
B|---------------------------------|---------------------------------|
G|---------------------------------|---------------------------------|
D|---------------------------------|---------------------------------|
A|--2--2--2----3/4--3/4------------|--2--2--2----3/4--3/4------------|
E|--0--0--0----1/2--1/2------------|--0--0--0----1/2--1/2------------|

J'avais une terre, à St-Agathe

e|---------------------------------|---------------------------------|
B|---------------------------------|---------------------------------|
G|---------------------------------|---------------------------------|
D|-------------3--4----------------|-------------3--4----------------|
A|-------------1--2----------------|-------------1--2----------------|
E|--00000000-----------------------|--00000000-----------------------|
 Pm ________                       Pm ________

Où jfesais pousser des patates

e|---------------------------------|---------------------------------|
B|---------------------------------|---------------------------------|
G|---------------------------------|---------------------------------|
D|---------------------------------|---------------------------------|
A|--0-0-0-0-0-0----8/7-------------|--0-0-0-0-0-0----8/7-- ----------|
E|-----------------6/5-------------|-----------------6/5-------------|
 Pm ___________                   Pm ____________

J'avais une vache din paturages

e|---------------------------------|---------------------------------|
B|---------------------------------|---------------------------------|
G|---------------------------------|---------------------------------|
D|---------------------------------|---------------------------------|
A|--22222222222222222222-----------|---------------------------------|
E|--00000000000000000000-----------|---------------------------------|
Pm______________________

e|---------------------------------|---------------------------------|
B|---------------------------------|---------------------------------|
G|---------------------------------|---------------------------------|
D|---------------------------------|---------------------------------|
A|--2---3-3-3---2---3-3-3---2------|--3-3-3---4---5-5-5---4---5-5-5--|
E|--0---1-1-1---0---1-1-1---0------|--1-1-1---2---3-3-3---2---3-3-3--|
     Pm______    Pm______        Pm _______   Pm_______   Pm_______

   HAAA C BON DES PATATES!

e|---------------------------------|---------------------------------|
B|---------------------------------|---------------------------------|
G|---------------------------------|---------------------------------|
D|--8---8---8---8---8---8---8---8--|----8---8---8---8---8---8---8----|
A|--6-8-6-8-6-8-6-8-6-8-6-8-6-8-6--|--8-6-8-6-8-6-8-6-8-6-8-6-8-6-8--|
E|----6---6---6---6---6---6---6----|--6---6---6---6---6---6---6---6--|

e|---------------------------------|---------------------------------|
B|---------------------------------|---------------------------------|
G|---------------------------------|---------------------------------|
D|-------------3--4----------------|-------------3--4----------------|
A|-------------1--2----------------|-------------1--2----------------|
E|--00000000-----------------------|--00000000-----------------------|
  Pm________                       Pm_________

e|---------------------------------|---------------------------------|
B|---------------------------------|---------------------------------|
G|---------------------------------|---------------------------------|
D|-------------3--4----------------|-------------3--4----------------|
A|-------------1--2----------------|-------------1--2----------------|
E|--00000000-----------------------|--00000000-----------------------|
  Pm________                        Pm________

e|---------------------------------|---------------------------------|
B|---------------------------------|---------------------------------|
G|---------------------------------|---------------------------------|
D|-------------5--6----------------|-------------5--6----------------|
A|-------------3--4----------------|-------------3--4----------------|
E|--00000000-----------------------|--00000000-----------------------|
  Pm________                        Pm________

  C'est doux doux doux dans l'estomac
e|---------------------------------|---------------------------------|
B|---------------------------------|---------------------------------|
G|---------------------------------|---------------------------------|
D|--4--3---------------------------|--8---8---8----------------------|
A|--2--1---------------------------|--6-8-6-8-6-8--------------------|
E|---------------------------------|----6---6---6--------------------|

e|---------------------------------|---------------------------------|
B|---------------------------------|---------------------------------|
G|---------------------------2p0---|---------------------------------|
D|----------------2p0--------------|--2p0----------------------------|
A|--2------------------------------|---------------------------------|
E|--0---0-0-0-0--------0-0---------|---------------------------------|
     Pm________      Pm___

Then, repeat all that to :

OK TOUT LE MONDE ON SORT ÉPLUCHE PATATES, PIS A GO, ON SÉPILE LES
COUILLES OK?!?!  1,2,3,GO

e|--33333334333333343333333436343--|--33333334333333343333333436343--|
B|---------------------------------|---------------------------------|
G|---------------------------------|---------------------------------|
D|---------------------------------|---------------------------------|
A|---------------------------------|---------------------------------|
E|---------------------------------|---------------------------------|

e|--55555556555555565555555658565--|--55555556555555565555555658565--|
B|---------------------------------|---------------------------------|
G|---------------------------------|---------------------------------|
D|---------------------------------|---------------------------------|
A|---------------------------------|---------------------------------|
E|---------------------------------|---------------------------------|

  C bon des patates
e|---------------------------------|---------------------------------|
B|---------------------------------|---------------------------------|
G|---------------------------------|---------------------------------|
D|---------------------------------|---------------------------------|
A|--3-4-5-----3-4-5----------------|---------------------------------|
E|--1-2-3-----1-2-3----------------|---------------------------------|

e|---------------------------------|---------------------------------|
B|---------------------------------|---------------------------------|
G|---------------------------------|---------------------------------|
D|---------------------------------|--------------7-7-7-5-7\---------|
A|--2---3---5---3---5---7---9------|--7---5-------5-5-5-3-5\---------|
E|--0---1---3---1---3---5---7------|--5---3--------------------------|