Monster Magnet - Blow Em Off Text Guitar Tab

Learn the song with the online tablature player
MONSTER MAGNET - "Blow'Em Off"

Comments, corrections, etc. welcome

This isn't exact, but sounds ok on only one guitar.
A correction of the lyrics would also be more than welcome.Chords:

    E A D G B e

C : x 3 2 0 1 x
D5: x x 0 2 3 x
F : x x 3 2 1 1
G : 3 2 0 0 0 3
G5: 1 3 3 x x x

Riff

    1     2     3     4
e |-------------------------|
B |-3--3--3-3-3-3--3--3-3-3-|
G |-0-h2--2-2-2-0-h2--2-2-2-|    Repeat
D |-0--0--0-0-0-0--0--0-0-0-|
A |-------------------------|
E |-------------------------|

Riff
When you said alright

I thought you meant alright

When you said that's fine

I thought you meant that's fine

             G5
I guess some standards don't always apply

Riff
When that kid goes home

He always goes alone

He hides in the machine

And always stays fourteen

             G5
Well there's really nothing wrong with the plan

           G5
He goes to sleep at night and holds his own hand

          G5
It's inconceivable but could be an end

D5  C          F             G
Who brings you back when you go go go...

D5        C           F                G
Who keeps saying your prayers when you blow them off

D5  C      F        G
Who keeps alive the concept of mind

D5  C        F                 G
Who cares to care when they're really scared

                    Riff
When they're really scaredBreak:

    1     2     3     4     1     2     3     4
e |-------------------------------------------------
B |-6--6--6-6-6-5--5--5-5-5-6--6--6-6-6-1--1--1-1-1-
G |-5--5--5-5-5-4--4--4-4-4-5--5--5-5-5-0--0--0-0-0-
D |-0--0--0-0-0-0--0--0-0-0-0--0--0-0-0-0--0--0-0-0-
A |-------------------------------------------------
E |-------------------------------------------------

    1     2     3     4     1     2     3     4
   -------------------------------------------------|
   -1sl3--3-3-3-3--3--3-3-3-3--3--3-3-3-3--3--3-3-3-|
   -0-h2--2-2-2-0-h2--2-2-2-0-h2--2-2-2-0-h2--2-2-2-|
   -0--0--0-0-0-0--0--0-0-0-0--0--0-0-0-0--0--0-0-0-|    Play 3 times, then:
   -------------------------------------------------|
   -------------------------------------------------|

    1     2     3     4     1     2     3     4
e |------------------------------------------------
B |-6--6--6-6-6-5--5--5-5-5-6--6--6-6-6-8--8--8--8-
G |-5--5--5-5-5-4--4--4-4-4-5--5--5-5-5-7--7--7--7-
D |-0--0--0-0-0-0--0--0-0-0-0--0--0-0-0-0--0--0--0-
A |------------------------------------------------
E |------------------------------------------------

    1     2     3     4     1     2     3     4

   -8--8--8-8-8-6--6--6--6--6--6--6-6-6-5--5--5--5-
   -7--7--7-7-7-5--5--5--5--5--5--5-5-5-4--4--4--4-
   -0--0--0-0-0-0--0--0--0--0--0--0-0-0-0--0--0--0-

    1     2     3     4     1     2     3     4
   ------------------------------------------------|
   -5--5--5-5-5-8--8--8--8--8--8--8-8-8-3----------|
   -4--4--4-4-4-7--7--7--7--7--7--7-7-7-2----------|
   -0--0--0-0-0-0--0--0--0--0--0--0-0-0-0----------|
   ------------------------------------------------|
   ------------------------------------------------|

Riff
When you said alright

I thought you meant alright

When you said that's fine

I thought you meant that's fine

                 G5
Well there's the answer on the tip of my tongue

                 G5
Well there's the bubble on the face of the moon

          G5
There's a chamber that should always be full

D5  C          F             G
Who brings you back when you go go go...

D5        C           F                G
Who keeps saying your prayers when you blow them off

D5  C      F        G
Who keeps alive the concept of mind

D5  C        F                 G
Who cares to care when they're really scared

                    Riff
When they're really scared