Monster Magnet - Kiss Of The Scorpion Text Guitar Tab

Learn song with the online tabulature player
Kiss Of The Scorpion

by Monster Magnet
from the album 'god says no' 

transcribed by Christian Reindel (creindel@gmx.de)
any questions or corrections- e-mail me

Tune down 1/2 step

main riff (play with heavvy fuzz and wah) 
|-------------------------------|
|-------------------------------|
|-------------------------------|
|-------------------------------|
|-----------6-4-6-6-------------|
|--6-5-6-6----------------------|

fill 1
|-------------------------------|
|-------------------------------|
|-------------------------------|
|-------------------------------|
|--4~~~~~~-----8~~~~~~----------|
|-------------------------------|

chorus          2x
|------------------------------|
|------------------------------|
|------------------------------|
|------------------------------|
|--------4-4-4-6-6-6-----------|
|-6-6-6---------------6-~~~----|
               2x
|------------------------------|
|------------------------------|
|------------------------------|
|------------------------------|
|-4-4-4-6-6-6-8-8-8------------|
|-------------------6~~~~------|

end.