Monster Magnet - Your Lies Become You Text Guitar Tab

Learn the song with the online tablature player
_____________________Monster Magnet - Your Lies Become You___________________

Enjoy this wonderful track from the Powertrip album. It should be preatty exact

__________________________________________________________________________________

Riff 1

|----------0---------------------|-------------------------|
|-------------1------------3-----|-------------------------|
|-------2---------------2-----2--|-------------------------|
|-----2---------------2----------|-------------------------|
|---0---------------0------------|-------------------------|
|--------------------------------|--0----0-3-0--3-0--0-3-0-|
         Don't play this tone the first time ^
__________________________________________________________________________________

Riff 2

|-----------------------------5--|
|-----------------------------5--|
|----4-5---7--5-4-5--4--------5--|
|--7--------------------7-7---7--|
|--------------------------------|
|--------------------------------|

|-------------------------5--|
|-------------------------5--|
|----4-5---7-9--7-5-4-----5--|  Leave this part
|--7------------------7---7--|  out the first time
|----------------------------|
|----------------------------|

|------------------------|
|------------------------|
|----4-5---7-9--7-5-4----|
|--7------------------7--|
|------------------------|
|------------------------|

__________________________________________________________________________________

Riff 3

|-------------------------|
|-----1-----------3-------|
|----2--2-2------2--2-2---|
|---2----2------2----2----|
|--0-----------0----------|
|-------------------------|

__________________________________________________________________________________

Riff 4

|------------------------------------------------|
|------------------------------------------------|
|------------------------------------------------|
|---------------------7--------------------------|
|-------------------------7----------------------|
|---------0-3-0-5--------------0-3-0--3-0--0-3-0-|

__________________________________________________________________________________

How did I get here without you?                 Riff 1 (6 Times)
It's a miracle we're all sane
We're kinda like sucked in a vacuume
Of booking a flight on a doomed plane
Well you claimed you could read the future      Riff 2 (Without the middle part)
And I'd say that you've nailed that down

You still want everyone to love you             Riff 1 (6 Times)
Well here's a tip of my hat to you, Big Brain:
Do you really believe they can't see through
A circus punk playing a foul game?
Let me cast you a light, one that's natural     Riff 2
And with me you can strike that pose yeah
And you melt for the camera
'Cause your lies become you                     Riff 3 (3 Times)
Yes, your lies become you
Yes, your lies become you after all
                                                A 4 tact break
How am I living without you?                    Riff 1 (4 Times)
Mmm I'm not even sure now that I'm sane
But this little dog's got enough sense
To know not to sleep in the cold rain
Yeah yeah yeah                                  Riff 2

Riff 3
3 Times)
                                                A 6 tact break
How are you doing without me?                   Riff 4 (After the singing)
I'm sure you've found some new game
I never wanted to miss you                      Riff 1 (2 Times)
But then I never thought I could take pain
Hope it's warmer for you, princess              Riff 2
I in fact hope it's hot as hell
And you get what you asked for
'Cause your lies become you                     Riff 3 (3 Times)
Yes, your lies become you
Yes, your lies become you after all
__________________________________________________________________________________