Monster Squad - Dfa Text Guitar Tab

Learn song with the online tabulature player
Im not too sure if this is exact but it sounds pretty right to me. Enjoy it punx!

INTRO
E--------------------------------------------|
A--------------------------------------------|
D--------------------------------------------|
G-9(9)999-5-555-4-5-6-7----------------------|
B-7(7)777-3-333-2-3-4-5----------------------|    x2
E--------------------------------------------|


VERSE
E--------------------------------------------|
A--------------------------------------------|
D--------------------------------------------|
G--------------------------------------------|
B-999-5-555-444-4-555------------------------|
E-777-3-333-222-2-333------------------------|  x4


CHORUS
E--------------------------------------------|
A--------------------------------------------|
D--------------------------------------------|
G-9(9)(9)(9)999-5-555-4-5-6-7----------------|
B-7(7)(7)(7)777-3-333-2-3-4-5----------------|
E--------------------------------------------|