Monster Squad - Strength Through Pain Text Guitar Tab

Learn the song with the online tablature player
Guitar 1

---------------------------------|
---------------------------------|
-9---9---9---9---5---5---5---5---|
---9---9---9---9---5---5---5---5-| x Whole intro
---------------------------------|
---------------------------------|

Guitar 2

------7~~~------|
-5~~~-----------|
----------5~~~~-|
----------------| x 4
----------------|
----------------|

------7777------7-8-10-8-7-8-7-|
-5555--------------------------|
----------5555-----------------|
-------------------------------| x 2
-------------------------------|
-------------------------------|

-8-7-8-10-8-10-12-10-7-8-7-----|
-------------------------------|
-------------------------------|
-------------------------------|
-------------------------------|
-------------------------------|

8-12-10-7-8-7-|
--------------|
--------------|
--------------| x3
--------------|
--------------|

-------------------------------------------------------|
-------------------------------------------------------|
-9-9-9-7-9-9-9-7-7-7-7-12-12-12-12---------------------|
-9-9-9-7-9-9-9-7-7-7-7-12-12-12-12---------------------|
-7-7-7-5-7-7-7-5-5-5-5-10-10-10-10-10-10-10-10-9-9-9-9-|
------------------------------------8--8--8--8-7-7-7-7-|