Monstrosity - Dust To Dust Text Guitar Tab

Learn the song with the online tablature player
Band
Album: (In dark purity)
Song:  (Dust to dust)

.  - palm mute           /  - slide up to
\  - slide down to       ~  - vibrato
h  - hammer on           b  - Bend
p  - pull off            Suffixes for bend
t  - tap                 f  - full bend    h - half bend
ph - pinched harmonic    q  - quarter bend t - tap bend
*  - see comment         ^  - Hold bend    r release bend
"  - tremolo note        <> - Trill

        Intro
|------------------|
|------------------|
|------------------|
|------------------|
|-12"\2"-------2-2-|
|-------12"\2"-0-0-|
   .  .  .  .  . .

     A
2nd Guitar single picks beginning 8 notes)
|-------------------------------------------------------------------|
|-------------------------------------------------------------------|
|-------------------------------------------------------------------|
|-----------7"-8"-10"-5"-1"-----------------------------------------|
|-0"-9"-10"---------------------------------------------------------|
|---------------------------5"-1"-3"-0"-----------------------------|
                            .  .  .  .

             B
|------------------------|
|------------------------|
|------------------------|
|----------------4/5-4/5-|
|----------------2/3-2/3-|
|-0"-2"-0"-2"h3"---------|
  .  .  .  .  .

             C
|---------------------------------------------------------|
|---------------------------------------------------------|
|---------------------------------------------------------|
|-4/5-4/5---------4/5-4/5---------4/5-4/5---------7\5-7\5-|
|-2/3-2/3---------2/3-2/3---------2/3-2/3---------5\3-5\3-|
|---------0-0-0-0---------0-0-0-0---------0-0-0-0---------|
          . . . .         . . . .         . . . .

             D
|-------------------------------------|
|-------------------------------------|
|-------------------------------------|
|-------------------------------------|
|-------------------------4-4-7-7-5-5-|
|-0-0-0-0-0-0-0-0-0-0-0-0-2-2-5-5-3-3-|
  . . . . . . . . . . . . . . .   . .

     E
Bridge)
|--------------------|
|--------------------|
|--------------------|
|--------------------|
|-7---7\5\4----------|
|-5-0-5\3\2----------|
    .

             F
|------------------------------------|
|------------------------------------|
|------------------------------------|
|------------------------------------|
|-2-2-2-2--2-2-2-2--4-4-4-4--4-4-4-4-|
|-0-0-0-0--0-0-0-0--2-2-2-2--2-2-2-2-|
  . . . .  . . . .  . . . .  . . . .

             G
|------------------------------------|
|------------------------------------|
|------------------------------------|
|------------------------------------|
|-3-3-3-3--3-3-3-3--5-5-5-5--5-5-5-5-|
|-1-1-1-1--1-1-1-1--3-3-3-3--3-3-3-3-|
  . . . .  . . . .  . . . .  . . . .

Outro
on harm. Whammy dips, then release)
|------------------------------------------------|
|------------------------------------------------|
|-17ph-br----------------------------------------|
|-15ph-br----------------------------------------|
|-----------------12"\2"-------2-2---------------|
|-----------------------12"\2"-0-0---------------|

Song Structure:
INTRO

     A
X3

     B
X4

     C
X4

     A
X2

     B
X4

     C
X8

     D
X4

     E
X1

     F
X4 (Solo starts)

     G
X4

     F
X4

     G
X4

     A
X4

     B
X3

     C
X8
Outro
END