Montreal - Duo Mit Zwei Fusten Text Guitar Tab

Learn the song with the online tablature player
                             Duo mit Zwei Fäusten - Montreal

Intro
e|---------------------------------|
B|---------------------------------|
G|---------------------------------|
D|---0---0---0---0---0---0---0---0-|
A|-3---3---------------------------|
E|---------3---3---5---5---1---1---|

Chorus
e|---------------------------------------------------------------------|
B|---------------------------------------------------------------------|
G|--5-5-5-5------------------------------------------------------------|
D|--5-5-5-5--5-5-5-5--7-7-7-7--3-3-3-3---------------------------------|
A|--0-0-0-0--5-5-5-5--7-7-7-7--3-3-3-3---------------------------------|
E|-----------0-0-0-5--5-5-5-5--1-1-1-1---------------------------------|

The best way to get comfortable with it!