Montys Fan Club - Storm Before The Calm Text Guitar Tab

Learn song with the online tabulature player
artist:Montys fan club
Song: Storm before the calm

Jon Yeston

good band and a good song...listen to montys fan club

E-------------------------------------------|
B-------------------------------------------|
G-------------------------------------------|
D------4---4---4--4--4--4----4--4-----------|
A-----2---2---2--2--2--2----2--2------------|
E----0---0---2--2--4--4----4--2-------------|


E----------------|
B----------------|
G----------------|
D----4---4---4---|
A----2---2---2---|
E----0---2---4---|


if you need the rythem, listen o the song