Moonspell - Ataegnia Text Guitar Tab

Learn the song with the online tablature player
00:00 -> 00:14  - Synth, simulating a flute... It can be played as follows
                  (two times):
RIFF 1

5--3------------------------------------------5--3----------------------------
------5--4--2-4-5-4---5--4--5--4--7--5--7--5--------5--4--2-4-5-4---5--4--5--4

----5-4-2---

00:14 -> 00:44  - One guitar playes Riff 1, while other playes Riff 2, four
                  times.
RIFF 2

9---------------------5-----------7-----------9---------------------5---------
9---------------------5-----------5-----------9---------------------5
7---------------------3-----------5-----------7---------------------3
0---------------------------------------------0-------------------------------

--7
--7

00:44 -> 00:58 - Riff 3, twice, acompanning drums and the flute synth (I
                 could transform the flute into a guitar, sorry)
                                                                        4
RIFF 3

                 2----x---2--2--x----2--2--x----2--
                 2--2--x----2--2--x----2--2--x----2--
                 0--0--x----0--0--x----0--0--x----0--

00:58 -> 01:3 - Chorus, play Riff 4, 2 times.
RIFF 4

2--2-2-2-2-2-2-2-2---2-2-2-2-2-2-2-2-5--5-5-5-5-5-5-5-5---5-5-5-5-5-5-5-5-----
2--2-2-2-2-2-2-2-2---2-2-2-2-2-2-2-2-5--5-5-5-5-5-5-5-5---5-5-5-5-5-5-5-5-----
0--0-0-0-0-0-0-0-0---0-0-0-0-0-0-0-0-3--3-3-3-3-3-3-3-3---3-3-3-3-3-3-3-3-----
   PM...........     PM.............    PM...........     PM.............
                                                                        5

01:13 -> 01:42 - Play Riff 1 with Riff 2, 4 times.

01:42 -> 01:53 - Play Riff 3, two times.

01:53 -> 02:11 - Chorus, Riff 4, 2 times.

02:11 -> 02:58 - This is the 'solo' part. It's played with the synth (I
                 couldn't transpose it to guitar), and two guitars. One
                 plays Riff 5, 12 times, and the other plays some sort of
                 solo... I couldn't transcribe the second guitar, so I've

added an improvised solo
Riff 6). It should be played
                 acousticaly.
RIFF 5

                 ----0-0---0-------0-0---0--
                 ---0----0--------0----0----
                 --9-------------7----------
                 -9----9--------7----7------
                 7-------------5------------

5--3----------5--3----------5--3--3-5-7-8--7--5-3-5--3----------8--7---5------
-------5-4----------5--4--------------------------------5--4-------------7---

----------5---------------------------5---7-----7--7>>10--9--7--5--7----------
8--7---8------8--7---5------8--7---8---------5------------------------5-------

7-----7--7>>10--9--7--5--7-----------
---5------------------------5--------

                                                                        7

02:58 -> 03:27 - Riff 1 with Riff 2, 4 times.

03:27 -> 03:42 - Riff 3, 2 times.

03:42 -> 03:57 - Chorus, Riff 4, 2 times.

                           THE END