Moony - Flying Away Text Guitar Tab

Learn the song with the online tablature player
Flying Away tab by Moony
Tabber: Miguel Rigor

Intro

(With bass, or just let someone play the notes on the A and E strings and listen for the timing)

W/ Distortion

     C        G       A       F
e||-------|-------|-------|-------||
B||-------|-------|-------|-------||
G||-----5-|-------|-------|-------||  2x
D||-------|-----5-|-----7-|-----3-||
A||--3----|-------|-------|-------||
E||-------|--3----|--5----|--1----||

   riff
e||-------------------------------||
B||--------------------10-8-------||
G||-5-5---5-7/9-7-5---------7-5---||  4x
D||-----7-----------7-------------||
A||-------------------------------||
E||-------------------------------||

Verse

     C        G       A       F
e||-------|-------|-------|-------||
B||-------|-------|-------|-------||
G||-----5-|-------|-------|-------||  2x
D||-------|-----5-|-----7-|-----3-||
A||--3----|-------|-------|-------||
E||-------|--3----|--5----|--1----||

     C        G       A       F
e||-------|-------|-------|-------||
B||-------|-------|-------|-------||
G||--5~---|-------|-------|-------||  2x
D||--5~---|--5~---|--7~---|--3~---||
A||--3~---|--5~---|--7~---|--3~---||
E||-------|--3~---|--5~---|--1~---||

That’s practically it

I didn’t include the riffs in the chorus. Haha... can hardly hear it.. :P

Lyrics

I wake up
I wash my face and go
Here’s another day
I’ll show
I’ll fight for what I love

And the music keeps goin’ on
My heart begins to beat
And the music keeps goin’ on
It makes my life complete

(flyin’ away..)

I’m flyin’ away... (4x)

Here’s the sound
I cannot live without
As the rhythm goes I’m sure
My soul will never pose

And the music keeps goin’ on
It opens up my eyes
And the music keeps goin’ on
Oh, one day I was blind

I’m flyin’ away... (4x)

I’m flyin’ away... oh...