Moos - Schrei Nach Libe Text Guitar Tab

Learn the song with the online tablature player
Moos
Schrei nach Liebe

Aaaaaaaaaaaaaaaaaah

Intro
E-|---------------------------------------------------------------------------|
B-|-------------------------------8--------------------------------------8----|
G-|-7-7-9-10-9-5-7-5h7p5-7-7-9-10---10-9-5-7-7-9-10-9-5-7-5h7p5-7-7-9-10---10-|
D-|---------------------------------------------------------------------------|
A-|---------------------------------------------------------------------------|
E-|---------------------------------------------------------------------------|

1. Verse
 a                        F      G
Du bist wirklich saudumm, darum geht's dir gut.
 a                       F        G
Hass ist deine Attit?de, st?ndig kocht dein Blut.
 a                           F                 G
Alles muss man dir erkl?ren, weil du wirklich gar nichts wei?t.
 a                                 F        G
H?chstwahrscheinlich nicht einmal, was Attit?de hei?t.

Refrain
 F       G                 a                        G
Deine Gewalt ist nur ein stummer Schrei nach Liebe.
 F              G             a                      G
Deine Springerstiefel sehnen sich nach Z?rtlichkeit.
 F       G                a              G
Du hast nie gelernt dich zu artikulieren
 F                       E
Und deine Eltern hatten niemals f?r dich Zeit
F
Ohohoh - ARSCHLOCH

E-|---------------------------------------------------------------------------|
B-|-------------------------------8--------------------------------------8----|
G-|-7-7-9-10-9-5-7-5h7p5-7-7-9-10---10-9-5-7-7-9-10-9-5-7-5h7p5-7-7-9-10---10-|
D-|---------------------------------------------------------------------------|
A-|---------------------------------------------------------------------------|
E-|---------------------------------------------------------------------------|

2.Verse
Warum hast du Angst vorm streicheln? Was soll all der Terz?
Unterm Lorbeerkranz mit Eicheln weiss ich schl?gt dein Herz!
Und Romantik ist f?r dich nicht bloss graue Theorie.
Zwischen St?rkraft und den Onkelz steht ne Kuschelrock LP.

Refrain
Deine Gewalt...  ...ARSCHLOCH

E-|---------------------------------------------------------------------------|
B-|-------------------------------8--------------------------------------8----|
G-|-7-7-9-10-9-5-7-5h7p5-7-7-9-10---10-9-5-7-7-9-10-9-5-7-5h7p5-7-7-9-10---10-|
D-|---------------------------------------------------------------------------|
A-|---------------------------------------------------------------------------|
E-|---------------------------------------------------------------------------|

3. Verse
Weil du Probleme hast die keinen intressieren,
Weil du Schi? vorm Streicheln hast, bist du ein Faschist!
Du musst deinen Selbsthass nicht auf andre projezieren,
Damit keiner merkt was f?r ein lieber Kerl du bist.

Solo
E-|---------------13-12-------------------------------------------------------|
B-|-15vv-13h15p13-------15-13-11vv-10h11p10-8vv--9(11)-9-7-9-10-11-10-8-------|
G-|---------------------------------------------------------------------------|
D-|---------------------------------------------------------------------------|
A-|---------------------------------------------------------------------------|
E-|---------------------------------------------------------------------------|
                                this part is not entirely correct...^^^

E-|-------------------------------------20------------------------------------|
B-|----15-17-18-17-18-20-18-20-22-20-22---------------------------------------|
G-|-17------------------------------------------------------------------------|
D-|---------------------------------------------------------------------------|
A-|---------------------------------------------------------------------------|
E-|---------------------------------------------------------------------------|

Refrain
Deine Gewalt...   ...ARSCHLOCH ARSCHLOCH ARSCHLOCH