Moose Express - Amber Song Text Guitar Tab

Learn the song with the online tablature player
        "Verse"

        Gtr I

  E E E   E E E E E   E  E E
|-------------------------------|
|-------------------------------|
|-------------------------------|
|-4-4-4--/7-7-7-7-7--/9--7-7----|
|-4-4-4--/7-7-7-7-7--/9--5-5----|
|-2-2-2--/5-5-5-5-5--/7---------|

        Gtr 2

  E E E E E E E E E E E E E E E E    E E E E E E E E E E E E E E E E
|-2h3p2h3p2h3p2h3p2h3p2h3p2h3p2h3---/7h8p7h8p7h8p7h8p7h8p7h8p7h8p7h8--|
|---------------------------------------------------------------------|
|---------------------------------------------------------------------|
|---------------------------------------------------------------------|
|---------------------------------------------------------------------|
|---------------------------------------------------------------------|

        "Pre-Chorus"

        Gtrs 1 and 2                  ~           ~
  E   E   E   E   E E E E E   E E E E E      E  E
|-9--10--11--12--------------------------------------|
|----------------------------------------------------|
|-6---7---8---9-------4h6---------4h6--------7--9----|
|-------------------------5-----------5------7--9----|
|-----------------4-4---------4-4------------5--7----|
|----------------------------------------------------|

        "Chorus"

  E E E  E E  E E E  E E
|---------------------------|
|---------------------------|
|--------4-4---------6-6----|
|-4-4-4--3-4--5-5-5--6-6----|
|-4-4-4--2-2--5-5-5--4-4----|
|-2-2-2-------3-3-3---------|

        "Guitar Solo"

  E   E E E E E E E E  E E E E E E E E   E E E  E   E  E  E  E  E      E      E
|-5---5-5-5-5-5-5-5-5------------------------------13-10----10-10-----13-----16-----|
|-5---5-5-5-5-5-5-5-5--------------------6-8-8-10--------13----13b15--16b18--19b21--|
|-7b9---7---7---7---7--7p5p0-------7p5---5-7-7--9-----------------------------------|
|----------------------------7p5p0--------------------------------------------------|
|-----------------------------------------------------------------------------------|
|-----------------------------------------------------------------------------------|


Duration Legend W - whole; H - half; Q - quarter; E - 8th; S - 16th; T - 32nd; X - 64th; a - acciaccatura + - note tied to previous; . - note dotted; .. - note double dotted Uncapitalized letters represent notes that are staccato (1/2 duration) Irregular groupings are notated above the duration line Duration letters will always appear directly above the note/fret number it represents the duration for. Duration letters with no fret number below them represent rests. Multi- bar rests are notated in the form Wxn, where n is the number of bars to rest for. Low melody durations appear below the staff h - hammer-on p - pull-off b - bend pb - pre-bend r - bend release (if no number after the r, then release immediately) /\ - slide into or out of (from/to "nowhere") s - legato slide S - shift slide - natural harmonic [n] - artificial harmonic n(n) - tapped harmonic ~ - vibrato tr - trill T - tap TP - trem. picking PM - palm muting \n/ - tremolo bar dip; n = amount to dip \n - tremolo bar down n/ - tremolo bar up /n\ - tremolo bar inverted dip = - hold bend; also acts as connecting device for hammers/pulls <> - volume swell (louder/softer) x - on rhythm slash represents muted slash o - on rhythm slash represents single note slash Misc Legend | - bar || - double bar ||o - repeat start o|| - repeat end *| - double bar (ending) : - bar (freetime) $ - Segno & - Coda