Morbid Angel - Angel Of Disease Text Guitar Tab

Learn the song with the online tablature player
..  - palm mute          /  - slide up to
 \  - slide down to      ~  - vibrato
 h  - hammer on          b  - bend
 p  - pull off            Suffixes for bend
                          ph - pinch harmonic
                           f - full bend    h - half bend
*  - see comment           r - release      t - tap bend
X  - percussion mute       ~ - vibrato bend
@  - slight palm mute     () - ghost note, sustained note

Tune Gtr to Eb

*note* I didn't put the timing on this song or what riffs are played where
       so you'll have to figure it out cause this song is too long to sit
       there and figure out how many time to play what. Have fun.

Riff 1
|------------------------|
|------------------------|
|------------------------|
|----7----9-10----7\4-5--|
|----5----7--8----5\2-3--|
|-00---00------00--------|
pm..   ..      ..

Riff 2
|----------------------------------------------------------|
|----------------------------------------------------------|
|----------------------------------------------------------|
|----------------------------------------------------------|
|-2----------5------4--4--3~--2----------5-------4--4--5~--|
|-0--0-0-0-0-3--0-0-----------0--0-0-0-0-3--0-0------------|
pm   . . . .    . .              . . . .    . .

Riff 3
Chorus)
|----------------------------------------------------|
|----------------------------------------------------|
|----------------------------------------------------|
|------7\6-------6\5---------------7\6-------6\5-----|
|-8\7--5\4--7\6--4\3--8\7-5/7-8\7--5\4--7\6--4\3--5--|
|-6\5-------5\4-------6\5-3/5-6\5-------5\4-------3--|

Fill (Haven't figured this part out yet. Any help would be nice)
|-----------|
|-----------|
|-----------|
|-????????--|
|-????????--|
|-????????--|

Riff 4
|-----------------------------|
|-----------------------------|
|-----------------------------|
|-------6---6-6/7\6-----------|
|-8--7--4---4-4/5\4-8--8-8-8--|
|-6--5--------------6--6-6-6--|
pm                     . . .

Riff 5
|------------------------------------------------------------------------------------|
|------------------------------------------------------------------------------------|
|------------------------------------------------------------------------------------|
|-------------------------------------------------(haven't got the part after this)--|
|-6--7\6-6-6-6-6--6-10\9-9-9-9-9--6--7\6-6-6-6-6-------------------------------------|
|-4--5\4-4-4-4-4--4--8\7-7-7-7-7--4--5\4-4-4-4-4-------------------------------------|
pm       . . . .         . . . .         . . . .

Riff 6
before one of the many solos)
|--------------|
|--------------|
|--------------|
|--------------|
|-(7)-----(4)--|
|-(5)-----(2)--|

Riff 7
|---------------------------------------------------|
|---------------------------------------------------|
|---------------------------------------------------|
|---------------------------------------------------|
|-7-----7-----7-----7--5--4-----4-----4-----5-------|
|-5-555-5-555-5-555-5--3--2-222-2-222-2-222-3-3333--|
pm  ...   ...   ...         ...   ...   ... . ....

end of song.