Morbid Angel - Desolated Ways Text Guitar Tab

Learn the song with the online tablature player
Morbid Angel
Desolated ways/Blessed are the sick
Acoustic Guitar

D#||---2----------2--------2--|--0----------0--------0---||
A#||--------0--------0--------|-------0--------0---------||
F#||*-------------------------|-------------------------*||
C#||*--2-------2--------2-----|--2-------2--------2-----*||
G#||--------------------------|--------------------------||
D#||--------------------------|--------------------------||

--0-------------0--------|--3----------3--------3--|--0----------0-----------|
-------------0-----0-----|-------0--------0--------|-------0--------0--------|
-------0--------------0--|-------------------------|-------------------0-----|
--2-------2--------------|-------------------------|-------------------------|
-------------------------|--3-------3--------3-----|--3-------3-----------3--|
-------------------------|-------------------------|-------------------------|

--5----------5-----------|--2-------------2--------|--3----------3-----------|
-------0--------0--------|-------------0-----0-----|-------0--------0--------|
-------------------0-----|-------0--------------0--|-------------------0-----|
-------------------------|-------------------------|----------------------0--|
--5-------5-----------5--|--2-------2--------------|--3-------3--------------|
-------------------------|-------------------------|-------------------------|

--0----------------||---2----------2--------2--|--0----------0--------0---||
--1----------------||--------0--------0--------|-------0--------0---------||
--0----------------||*-------------------------|-------------------------*||
--2----------------||*--2-------2--------2-----|--2-------2--------2-----*||
--3----------------||--------------------------|--------------------------||
-------------------||--------------------------|--------------------------||

--0-------------0--------|--3----------3--------3--|--0----------0-----------|
-------------0-----0-----|-------0--------0--------|-------0--------0--------|
-------0--------------0--|-------------------------|-------------------0-----|
--2-------2--------------|-------------------------|-------------------------|
-------------------------|--3-------3--------3-----|--3-------3-----------3--|
-------------------------|-------------------------|-------------------------|

--5----------5-----------|--2-------------2--------|--3----------3-----------|
-------0--------0--------|-------------0-----0-----|-------0--------0--------|
-------------------0-----|-------0--------------0--|-------------------0-----|
-------------------------|-------------------------|----------------------0--|
--5-------5-----------5--|--2-------2--------------|--3-------3--------------|
-------------------------|-------------------------|-------------------------|

--0----------------|--0----------5----3----|--0----------3-----2-----|
--1----------------|-------0---------------|-------0--------0-----0--|
--0----------------|-----------------------|-------------------------|
--2----------------|-----------------------|-------------------------|
--3----------------|--7-------7--5----3----|--2-------0--3-----2-----|
-------------------|-----------------------|-------------------------|

--0----------3----2----|--0----------3-----2-----|--0----------5----3----|
-------0---------------|-------0--------0-----0--|-------0---------------|
-----------------------|-------------------------|-----------------------|
-----------------------|-------------------------|-----------------------|
--3-------0--3----2----|--3-------0--------------|----------0--5----3----|
-----------------------|-------------3-----2-----|--0--------------------|

--0----------3-----2-----|--0----------3----2----|--0----0-----|
-------0--------0-----0--|-------0---------------|--1-------0--|
-------------------------|-----------------------|--0----------|
-------------------------|-----------------------|--2----------|
--2-------0--3-----2-----|--3-------0--3----2----|--3----------|
-------------------------|-----------------------|-------------|

|---3----------3--------3--|--5----------5-----------|--2-------------2--------|
|--------0--------0--------|-------0--------0--------|-------------0-----0-----|
|*-------------------------|-------------------0-----|-------0--------------0--|
|*-------------------------|-------------------------|-------------------------|
|---3-------3--------3-----|--5-------5-----------5--|--2-------2--------------|
|--------------------------|-------------------------|-------------------------|

--0-----------------||-------------0-----------|--------------------------|
--1-----------------||----------------0--------|-------0-----1h0-------0--|
--0----------------*||-------0-----------0-----|-----------------0--------|
--2----------------*||--2-------2-----------2--|--0-------0---------0-----|
--3-----------------||-------------------------|--------------------------|
--------------------||-------------------------|--------------------------|

------------0---------|-------------0-----------|-------------0-----------|
--0--------------0----|--0-------------3-----3--|--0-------------0--------|
-------0--------------|-------0-----------0-----|-------0-----------0-----|
----------------------|-------------------------|--2-------2-----------2--|
--3-------------------|--2-------2--------------|-------------------------|
----------------------|-------------------------|-------------------------|

--------------------------|----------------------|-------------0-----------|
-------0-----1h0-------0--|--0---------0---------|--0-------------3--------|
-----------------0--------|-------0---------0----|-------0-----------0-----|
--0-------0---------0-----|----------------------|----------------------0--|
--------------------------|--3-------------------|--2-------2--------------|
--------------------------|----------------------|-------------------------|

|---0----0--------0--------|--0----0--------0---------||
|---1-------1--------1-----|--3-------3--------3------||
|*--0-------------------0--|--0-------------------0--*||
|*--2----------2-----------|--4----------4-----------*||
|---3----------------------|--5-----------------------||
|--------------------------|--------------------------||

--0----0-----------0-----|-------0--------------0--|----------||
--3-------3-----------3--|----------5--------5-----|----------||
--0----------0-----------|-------------0-----------|----------||
--4-------------4--------|----------------6--------|----------||
--5----------------------|----7--------------------|----------||
-------------------------|-------------------------|----------||