Morbid Angel - Inquisition Text Guitar Tab

Learn the song with the online tablature player
  tune down 1/2 step
-------------------------_/---------------------
-/------------------------------------------------/--\-----/---------------
5---5---/12--12-13p12p10---/15--15--13h15p13p12-12----10-12---9-9/11-11/12-

------------------------/--\-------------10h12h13p10--15---13--
12----11h12p11p9--11--11---------9h11h12-----------------------

12h13p12----12--------------------------------------------------------
---------14----14p12p11-12h14p12p11-12p11-----------------------------
-----------------------9---10---7-------10---9--/10--9-------
-9h10p9p7---9p7------------------------------------------7---
--------/19----17-20-19-17-15-14-12-14-15-14-12-------------------------------
12~~--------------------------------------------15-13-12----------------------
----------------10-12-15---13---12~~~---
-9---------9-12-------------------------
---9-10-12------------------------------