Morbid Angel - Prayer Of Hatred Text Guitar Tab

Learn the song with the online tablature player
Title:prayer of hatred
Artist:morbid angel
Album:formulas fatal to the flesh

Version 1.1

intro
|---------------------------------------------------------------------------|
|---------------------------------------------------------------------------|
|---------------------------------------------------------------------------|
|------------------------------------------------------------------4/3------|
|--4--5--4-33333------4--5--4-33333-----4--5--4--3--x----4--5--4-3-2/1------|
|--2--3--2-11111------2--3--2-11111-----2--3--2--1--x----2--3--2-1----------|
                                        .  .  .  .

       A
|---------------------------------------------------------------------------|
|---------------------------------------------------------------------------|
|---------------------------------------------------------------------------|
|----------------------------4/3-------------------------------------4-3----|
|-44445554433---444455554433-2/1--------444455554433----444455554433-2-1----|
|-22223332211---222233332211------------222233332211----222233332211--------|

verse
blessed be..                                                    x2
|---------------------------------------------------------------------------|
|---------------------------------------------------------------------------|
|---------------------------------------------------------------------------|
|----------------------------------------------------------------------4-3--|
|-444455554433--4/5--444455554433-4/5--444455554433--4/5-444455554433--2-1--|
|-222233332211--2/3--222233332211-2/3--222233332211--2/3-222233332211-------|

 very fast..listen closely the song to get the feel

 chorus               x4     enter gtr 2 and gtr 1 the stay the same   x4
|----------------------------|------------------------------------------------|
|----------------------------|------------------------------------------------|
|.--------------------------.|.----------------------------------------------.|
|.-------------4---4-5-4----.|.-----------5-7-5-7-8-7-5----------------------.|
|--------3-4-7---7-------7---|--3-2-3-6-7-------------------------------------|
|--5-4-5---------------------|------------------------------------------------|

 then riff A,verse,chorus,riff A ending with F5

 I'm not really sure with this

 riff b x2                             riff c x4
|-----------|-------------------------|-------------|--------------------------|
|-----------|-------------------------|-------------|--------------------------|
|--------5--|-------------------------|--------5-5~-|--------------------------|
|--------5--|-10-12-13-12-------------|--------5----|10-12-13-12---------------|
|-5/7--5-5--|--8-10-11-10-------------|-5/7--5-5----|-8-10-11-10---------------|
|-5/7--5----|-------------------------|-5/7--5------|--------------------------|
  gtr 1  .    gtr 2                      gtr 1         gtr 2

 then riff b again x2,riff c x2,then solo

|---------------------------------------------------------------------------|
|----------------------------------3----------------------------------------|
|---0-----------------------2-4-5-----5h4------------------5h4p5h4-7h5p7----|
|---------------------2-4-5----------------7---7h5h4p5p7--------------------|
|---------------2-3-5-------------------------------------------------------|
|---------2-3-5-------------------------------------------------------------|
 slow bar down

|------------------7/8-10-12h10h8p10h8/7------------------------------------|
|-5h7p5h7/8h7p8-10-----------------------10h8h7-----------------------------|
|-----------------------------------------------9h7h5--------------3ah------|
|-----------------------------------------------------9h7h5-----------------|
|-----------------------------------------------------------9h7h5-----------|
|---------------------------------------------------------------------------|
                                                                    bar

by now that's all i can tab......

 riff bx2,riff c x4, riff b x2,riff c x2

tapping solo
again I'm not really sure)

 T:left hand tapping, t:right hand tapping

 listen the song for timing,a lot of delay
                                                          repeat x2
|----------15-------------10---------13-----------15------------------------|
|-------15-------------10---------14-----------15------------11----------13-|
|----7--------------5-----------5------------7------------12----------14----|
|--5--------------3-----------3------------5------------8----------10-------|
|-----------------------------------------------------6----------8----------|
|---------------------------------------------------------------------------|
   T T  t   t     T T   t t   T T  t  t    T  T t  t  T  T t  t  T  T  t  t

 then the intro,riff A,verse X2,chorus x12,then

|---------------------------------------------------------------------------|
|---------------------------------------------------------------------------|
|---------------------------------------------------------------------------|
|----------------------------4/3--------------------------------------------|
|-44445554433---444455554433-2/1--------444455554433----4444555544----3-----|
|-22223332211---222233332211------------222233332211----2222333322----1-----|

the end.
enjoy with this masterpiece!