Morbid Saint - Assassin Text Guitar Tab

Learn the song with the online tablature player
Band: Morbid Saint
Album: Spectrum Of Death
Song: Assassin

Riff 1 x7
|---------------------------------------------|
|---------------------------------------------|
|---------------------------------------------|
|--14-14---15-15------------------------------|
|--12-12---13-13-----000008007000500003-------|
|---------------------------------------------|
                     . . . . . . . . .

Riff 2 x12
|-----------------------------------------------------------|
|-----------------------------------------------------------|
|-----------------------------------------------------------|
|-----------------------------------------------------------|
|-----------------------------------------------------------|
|-00008000700005000030000800070005000300008000700050003-----|
  ....................................................

Riff 3 x6
|---------------------------------|
|---------------------------------|
|---------------------------------|
|---------------------9-10-9------|
|-22222222222---------7-8--7------|
|-00000000000---------------------|
  ...........

Riff 4 x4
|--------------------------------|
|--------------------------------|
|--------------------------------|
|--------------------------9-10--|
|-----888888877777755555---7-8---|
|--------------------------------|
      ..................

Riff 5 x6
|------------------------------------------------------|
|------------------------------------------------------|
|------------------------------------------------------|
|------------------------------------------------------|
|---------------4-5------------5-6--------7-8------4-5-|
|-000000000-----2-3--0000000---3-4-000000-5-6-0000-2-3-|

Riff 6
|----------------------------------------|
|----------------------------------------|
|----------------------------------------|
|----------------------------------------|
|----------------7-8-7----10-10h11h10h11-|
|-0000000000----00-00-0--0---------------|

Riff 6 Alt Ending
|-----------------------------------------|
|-----------------------------------------|
|-----------------------------------------|
|--------------------------9h10p9h10p9h10-|
|----------------7-8-7--------------------|
|-0000000000----00-00-0--0----------------|