Morbid Saint - Beyond The Gates Of Hell Text Guitar Tab

Learn the song with the online tablature player
Band: Morbid Saint
Album: Spectrum Of Death
Song: Beyond the Gates of Hell

Suffixes for bend:
fb - full bend       hb - half bend
qb - quarter bend    t - tap bend
^ - Hold bend        r - release bend
~ - vibrato bend

Suffixes for harmonic:
ph - pinched harmonic      nh – natural harmonic
ah – artificial harmonic   hh – harp harmonic

Suffixes for mute:
. – palm mute            x – staccato mute
, - light palm mute      ; - heavy palm mute

Other:
/ - slide up to            \ - slide down to
h - hammer on              p - pull off
‘ - sustained note         * - see comment
" - tremolo note           <> - Trill
L – left channel only      R – right channel only
= - 12 string guitar part

Riff 1
0:02) play 8 times
|----------------------------------------------------------------|
|----------------------------------------------------------------|
|----------------------------------------------------------------|
|-------------------------------------------------------------5--|
|------------------------------7----------------------7-------3--|
|-0000333300003333000033330000-5-00003333000033330000-5--0000----|
  ............................   ....................    ....

Riff 2
0:32) play twice
|-------------------------------------------------------------|
|-------------------------------------------------------------|
|-------------------------------------------------------------|
|-------------------------4--5--------------------------4--4--|
|-------------------------2--3--------------------------2--3--|
|-0-0-3p0-0-0-3p0-0-0-3p0-------0-0-3p0-0-0-3p0-0-0-3p0-------|
  . .     . .     . .           . .     . .     . .

Riff 1 x 1 (0:39)
Riff 2 x 1 (1:02)

Riff 3
1:10)
|-------------------------------|------------------------------|
|-------------------------------|------------------------------|
|-------------------------------|--------4-3---3-2---2-1-------|
|---------6-\5-------6-\5--8\-7-|-6-\5-2-----1-----0-------6-5-|
|---------4-\3-------4-\3--6\-5-|-4-\3-------------------4-----|
|-0-0-0-0------0-0-0------------|------------------------------|
  . . . .      . . .                   . . . . . . . . . . . .

Riff 4
1:21) play 4 times
               [x3]
|-----------------|-------------------------|
|-----------------|-------------------------|
|-----------------|---4-3---3-2---2-1-------|
|-0/2-------------|-2-----1-----0-------6-5-|
|-0/2-2-2-2-2-2-2-|-------------------4-----|
|-----0-0-0-0-0-0-|-------------------------|
      . . . . . .   . . . . . . . . . . . .

Fill 1 (1:45)
|--------------------------------------------|
|--------------------------------------------|
|--------------------------------------------|
|---5-4---4-3---3-2---2-1--------------------|
|-3-----2-----1-----0-----2------------------|
|-------------------------0------------------|
  . . . . . . . . . . . .

Riff 5
1:49) play 4 times
|--------------------------------------------------------------------
|--------------------------------------------------------------------
|--------------------------------------------------------------------
|--------------------------------------------------------------------
|-777777777777777777777777555577777777777777777777777733335555555555-
|--------------------------------------------------------------------

---------------------------------------------|
---------------------------------------------|
---------------------------------------------|
---------------------------------------------|
-555555555555555555777777777777777777777777--|
---------------------------------------------|

Fill 2 (2:11)
|---------------|
|---------------|
|---------------|
|---------------|
|-2-----~~------|
|-0-----~~------|

Riff 1 x 3/4 (2:13)
Riff 4 x 1 (2:39)
Fill 1 x 1 (3:03)
Riff 5 x 1 (3:08)
Riff 2 x 1 (3:29)
Riff 1 x 3/4 (3:32)
Riff 2 x 1 (3:57)
Riff 3 x 1 (4:04)
Riff 4 x 1 (4:15)

End
|-----------------------------|
|-----------------------------|
|---4-3---3-2---2-1-----------|
|-2-----1-----0-------6-5-9---|
|-------------------4-----7---|
|-----------------------------|
  . . . . . . . . . . . .