Morda - Forsaken Text Guitar Tab

Learn song with the online tabulature player
Forsaken - Morda

dropped D tuning

guitar 1

- 5--6--3--5-5-- /
- -33-33-33-3-3- /   4x
- -------------- /
- -------------- /
- -------------- /
- -------------- /


guitar 2 (after 2 times guitar 1)
- -------------- /
- -------------- /
- -------------- /
- -7-8--5--7---- /x2
- -7-8--5--7---- /
- -7-8--5--7---- /


- ----------------------------------------------------------/
- ----------------------------------------------------------/
- ----------------------------------------------------------/
- ----------------------------------------------------------/
- ----------------------------------------------------------/
- --7777-8888-5555---7777777777-0000-8888-5555---77777777---/


send corrections to tgitaristje@hotmail.com