More Than A Thousand - No Bad Blood Text Guitar Tab

Learn song with the online tabulature player
DADGBE

This is a simple tab , a notice that no one
else had posted this song, and i love this song
so bad, so i did it by hear and by watching some covers ,
sorry but i did this in a very simple way because the
song is very easy to catch in terms of rhythm,
so  i didnt put the times hitting mutes and all of that
stuff , it is very easy

Intro
-------------------------------------------------|
-------------------------------------------------|
-------------------------------------------------|
--5-----------5----------------------------------|
--7-8-3-2-3---7-7-8-7-10-------------------------|
----8-3-2-3-----7-8-7-10-------------------------|


'---------------------'
         Palm Mute
Riff 1

-------------------------------------------------|
-------------------------------------------------|
-------------------------------------------------|
-------------------------------------------------|
--000000000000--333-666--000000000000--555--888--|
--000000000000--333-666--000000000000--555--888--|



Chorus

-------------------------------------------------|
-------------------------------------------------|
-------------------------------------------------|
-------------------------------------------------|
-0-8-3-2-3-----0-8-7-10--------------------------|
-0-8-3-2-3-----0-8-7-10--------------------------|



Riff 2

-------------------------------------------------|
-------------------------------------------------|
-------------------------------------------------|
-0---5h5p----------------------------------------|
-0---5h5p-----------333-666----555-888-----------|
-0------------------333-666----555-888-----------|

'----------' x3 then        /                      x4
   Palm Mute

-------------------------------------------------|
-------------------------------------------------|
-------------------------------------------------|
-------555s888s777-------------------------------|
--0----333s666s555-------------------------------|
--0----------------------------------------------|

'-------------'
  Palm Mute

Greetings from Portugal!!
MTAT Rocks!
http://www.facebook.com/pedro.bento.12