Morgan Page - Body Work Text Guitar Tab

Learn the song with the online tablature player
Great Song!

Intro

e |-1----0----3------------|
B |-1----1----3------------|
G |-2----2----4------------|
D |-3----2----5------------|
A |-3----0----5------------|
E |-1----x----3----7\------|

Verse 1

e |-1----0----3------------|
B |-1----1----3------------|
G |-2----2----4------------|
D |-3----2----5------------|
A |-3----0----5------------|
E |-1----x----3------------|

I still wanna see you tonight
Will you be around?
I still wanna get you alone
Will you be around? (be around, be around)

Interlude

e |-1----0----3------------|
B |-1----1----3------------|
G |-2----2----4------------|
D |-3----2----5------------|
A |-3----0----5------------|
E |-1----x----3------------|

Can I take all the steps that I’m planning tonight
Without risking it all?
Can I make all the moves I’m making tonight
Without hurting you bad

Chorus

e |--1----0----3-----------|
B |--1----1----3-----------|
G |--2----0----4-----------|
D |--3----2----5-----------|
A |--3----3----5-----------|
E |--1----x----3-----------|

You do your body work
I feel my pulse working overtime
You do your body work
I feel my pulse working overtime
I get shy in these lights
I feel your body doin overtime
I get shy in these lights
I feel my pulse doin overtime

Verse 2
I won’t give you what’s right
You still come around
I won’t put up a fight
You still come around (Come around, come around)

Interlude

Chorus

Bridge

e |--1----0----0-----------|
B |--1----1----0-----------|
G |--2----2----0-----------|
D |--3----2----2-----------|
A |--3----0----2-----------|
E |--1----x----0-----------|

You gotta fine form
Nobody’s sayin no

e |--1----0----3-----------|
B |--1----1----3-----------|
G |--2----2----4-----------|
D |--3----2----5-----------|
A |--3----0----5-----------|
E |--1----x----3-----------|

Walkin a fine line
Without hurting you bad

Interlude

Chorus

Lead Guitar Outro

e |---------------------|
B |---------------------|
G |---7--5--7---5--7--5-|
D |---------------------|
A |---------------------|
E |---------------------|