Moriarty - Beasty Jane Text Guitar Tab

Learn song with the online tabulature player
Salut a tous ! Cette tab est faite a partir des videos de live que j'ai pu trouver, 
puisque l'album n'est pas encore sorti.

Arthur joue quasi toutes ses cordes a vide pour l'arpege principale. Il utilise un 
accordage de blues bizarre en Re majeur (D), aussi appele "Vastopol", et qui substitue [D A D 
F# A D] / [Re La Re Fa# La Re] a l'habituel [E A D G B E] / [Mi La Re Sol Si Mi].

Cela dit, vous n'etes pas obliges de changer les deux cordes les plus aigues (E et B) 
puisqu'il ne les utilise pas.

Certains passages varient legerement selon les versions, je mets les changements entre 
parentheses, a vous de voir ce qui vous convient le mieux.

Intro et couplet :
D ----------------|----------------|----------------|----------------|
A ----------------|----------------|----------------|----------------|
F#------3-0-------|------3-0-------|------3-0-------|------3-0-------|
D ----------0-----|----------0-----|----------0-----|----------0-----|
A ---0------------|---0------------|---0------------|---0------------|
D -0--------------|-0--------------|-0--------------|-0--------------|

Refrain :
        . .              . .              . .              . .
D ----------------|----------------|----------------|----------------|
A ----------------|----------------|----------------|----------------|
F#------5-5--(5)--|------7-7--(7)--|------8-8--(8)--|------7-7---(7)-|
D ----0-----0-----|----0-----0-----|----0-----0-----|----0-----0-----|
A ----------------|----------------|----------------|----------------|
D -5--------------|-7--------------|-9--------------|-7--------------|

Bridge :

D ----------------|----------------|----------------|----------------|
A ----------------|----------------|----------------|----------------|
F#------5-5--(5)--|------5-5--(5)--|------5-5--(5)--|--------5-------|
D ----0-----0-----|----0-----0-----|----0-----0-----|----0-----------|
A ----------------|----------------|----------------|----------------|
D -5--------------|-3--------------|-2--------------|-1----------1---|...
Retour au Couplet.

Have fun, si vous avez des questions, douce-guitare@hotmail.fr
(I also speak english for those of you who didn't understand the texts)