Mörk Gryning - Bloodspring Mirage Text Guitar Tab

Learn the song with the online tablature player
I think there are two guitars playing basically the same thing but it is transcribed so that it can be played on just one guitar (almost the whole song)

Bloodspring Mirage

     A
|-------------------|-----------|---|-----------------------|
|---5-3-1-0---------|---0---0---|---|---0---0---0---0---0---|
|-2---------2-2/3-4-|-3---3---3-|---|-3---3---3---3---3---3-|
|---5---2-----------|-----------|---|-----------------------|
|-3---------------5-|-----------|-2-|-----------------------|
|-------------------|-----------|---|-----------------------|

|-0-|
|-1-|
|-2-|
|-2-|
|-0-|
|---|

play this instead of the violin (some variation)
|-------------------|
|---5-3-1-0---------|
|-2---------2-2/3-4-|
|---5---2-----------|
|-3---------------5-|
|-------------------|

     B
|---0-1-5-------------------------|
|-3-------0-----------0---5-------|
|-------5---2-2/3-4-3---3---3-4-3-|
|-3-0-----------------------------|
|---------------------------------|
|---------------------------------|

     C
|---0-1-5-------------------------------------|
|-3-------0-----------0---0-------0---0---0---|
|-------5---2-2/3-4-3---3---3---3---5---3---3-|
|-3-0-----------------------------------------|
|-----------------5-----------2---------------|
|---------------------------------------------|

|-0-|
|-0-|
|-0-|
|-2-|
|---|
|---|

Riff D x4
|---------|
|---------|
|-5-5-4-4-|
|-2-2-0-0-|
|---------|
|---------|

     E
|-------------------------------------|
|---------1---------------3-----------|
|-----0-----0---------0-----0---------|Gtr1 x8
|---2---2-----2-----4---4-----4-------|
|-3-------------3-5-------------5-----|
|-------------------------------------|
|                                     |
|-------------------------------------|
|-1-1-1-1-3-3-3-3-5-5-5-5-10-10-10-10-|
|-2-2-2-2-4-4-4-4-5-5-5-5-11-11-11-11-|Gtr2
|-------------------------------------|
|-------------------------------------|
|-------------------------------------|

Riff E Gtr2 cont
|--------------------------------------|
|-1-1-1-1-3-3-3-3-5-5-5-5-10-10-7-7-12-|
|-2-2-2-2-4-4-4-4-5-5-5-5-11-11-8-8-12-|
|--------------------------------------|
|--------------------------------------|
|--------------------------------------|

Riff F listen to get the right rhytm
|-0---0-0-0---0---0-0-0---0---0-0-0-|
|-0---0-0-0---0---0-0-0---0---0-0-0-|
|-5---5-5-5---5---5-5-4---4---4-4-4-|
|-5---5-5-5---5---5-5-4---4---4-4-4-|
|-3---3-3-3---3---3-3-2---2---2-2-2-|
|-----------------------------------|