Morning Glory - Say Something True Text Guitar Tab

Learn song with the online tabulature player
Say Something True
by Morning Glory
from "This is No Time ta Sleep"

Tabbed by Global Traitor

Tuning: Drop D

INTRO
G|-7--7--7-----|
D|-7--7--7--7--|  Play 4x
A|-5--5--5--8--|
D|-0--0--0--0--|


VERSE
G|-7--5/7--5/7--10-12-10-|
D|-x--x/x--x/x--x--x--x--| Play 4x
A|-5--3/5--3/5--8--10-8--|
D|-----------------------|


PRE-CHORUS
Guitar 1
G|------------------------------|
D|-8--7--6--8//-0---8--7--6--5--|
A|-8--7--6--8//-0---8--7--6--5--|
D|-8--7--6--8//-0---8--7--6--5--|

Guitar 2
G|-7--5-------------7--5--7--10-|
D|-x--x--6--8//-0---x--x--x--x--|
A|-5--3--6--8//-0---5--3--5--8--|
D|-------6--8//-0---------------|


CHORUS
G|----10------------10---------------|
D|-0--10--10--8--0--10--10--11-10-8--|
A|-0--8---10--8--0--8---10--11-10-8--|
D|-0------10--8--0------10--11-10-8--|

INTRO (4x)
VERSE (4x)
PRE-CHORUS (Guitar 2 follows Guitar 1 this time)
CHORUS (2x) (Ring out Open D at end)


BRIDGE
G|-------------7--5-----------------10--12-14-7-9-10-5----------|
D|----------7--------7--5--(Play----x---x--x--x-x-x--x--(Play---|
A|-5--7--8------------------twice)--8---10-12-5-7-8--3---twice)-|
D|--------------------------------------------------------------|


SOLO! (I hope this is accurate)
e|------------17-----15-------------------------------------------------|
B|-//15151515---15-15--15-15-18-15-18-17-15-17-15-17--------------------|
G|----------------------------------------------------19-18-16-18-16-14-|
D|----------------------------------------------------------------------|
A|----------------------------------------------------------------------|
D|----------------------------------------------------------------------|

e|------------------------------------------|
B|------------------------------------------|
G|-12--14--17--14--15b--------15-14---------|  (Second guitar plays the chorus underneath)
D|-x---x---x---x-------17-15--------17-15~~-|
A|-10--12--15--12---------------------------|
D|------------------------------------------|


PRE-CHORUS
CHORUS (2x)

END ON OPEN D!


That should be it! Play around with it, it seems to be close enough. 
I'm no guitar expert, I just have too much time on my hands.