Morning Musume - Kare To Issho Ni Omise Ga Shitai Text Guitar Tab

Learn song with the online tabulature player
kare to issho ni omise ga shitai
by morning musume
tabbed by manOutOfTime
Key: E

*Intro*
-----------|---------------|--------------------|---------------------------|
-----------|---------------|--------------------|---------------------------|
-----------|---------------|--------0----4------|---------------------------|
-----------|-----2----00---|------02-42--4------|---------------------------|
-----------|----2--02---42-|---0-4-------2-2/19-|---------------------------|
-2/14------|-004-----------|-4------------------|---------------------------|

*Verse1*
-----------|-------------|--------------|--------------|------------|-------|
-----------|-------------|--------------|--------------|-5-7-8-75-7-|-------|
-9---------|-------7-----|-------6------|-------5------|------------|-------|
-9---------|-------7-----|-------6------|-2-0---5------|------------|-------|
-7---------|---7-6-5-----|---7-5-4------|-----4-3------|------------|-------|
-----------|-7-----------|-7------------|--------------|------------|-------|

-------------------------------|-------------------------------|------------|
-------------------------------|-------------------------------|------------|
-9-----------------------------|-7-----------------------------|------------|
-9--8-9-x-9--8-9--8-9-x-9--8-9-|-7--6-7-x-7--6-7--6-7-x-7--6-7-|------------|
-7--7-7-7-7--7-7--7-7-7-7--7-7-|-5--5-5-5-5--5-5--5-5-5-5--5-5-|------------|
-------------------------------|-------------------------------|------------|

-------------------------------|------------------|-------------------------|
-------------------------------|----5-7-8-75-7----|-------------------------|
-6-----------------------------|-5----------------|-------------------------|
-6--5-6-x-6--5-6--5-6-x-6--5-6-|-5----------------|-------------------------|
-4--4-4-4-4--4-4--4-4-4-4--4-4-|-3----------------|-------------------------|
-------------------------------|------------------|-------------------------|

E
samishikute hora chotto nayande
D
denwa shite un chotto anshin
C#m
demo yappa aa hayaku aitai
C
yume ga fukuramu

E
itoshikute hora chotto doki doki
D
kisu wo shite un kanari nattoku
C#m
demo yappa aa fuan ni naru na
C
koi wa muzukashii

*Riff*
-11h12-12-11h12-12-11h12-|-------------------------|----------------9---||--|
-11h12-12-11h12-12-11h12-|-13p12-13p12-13p12-13p12-|-10p9p8-10p9p8----9-||--|
-------------------------|-------------------------|--------------------||--|
-------------------------|-------------------------|--------------------||--|
-------------------------|-------------------------|--------------------||--|
-------------------------|-------------------------|--------------------||--|

-----------------|-----------------|----------------------------------------|
-121211101088----|-----------------|----------------------------------------|
-----------------|-9\2--9\2--------|----------------------------------------|
-----------------|------------2/14-|----------------------------------------|
-----------------|-----------------|----------------------------------------|
-----------------|-----------------|----------------------------------------|
  1st ending       2st ending

*Verse2*
-----------------|-----------------|-----------------|---------------------|
-----------------|-----------------|-----------------|---------------------|
-----------------|-6--6-4-6--6-646-|-----------------|-4--4-3-4--44668844--|
-7--7-6-7--7-767-|-6---------6-----|-7--7-6-7--7-767-|-4---------44668844--|
-7---------7-----|-4---------4-----|-7---------7-----|-2---------22446622--|
-5---------5-----|-----------------|-5---------5-----|---------------------|

A
neru junbi mo zenbu kanryou
C#m
are ni meeru wo suru jikan
A
asu wa choppiri odekake da
B
ironna machi futari de miyou

*Prechorus*
-----------------|-----------------|-----------------|---------------|------|
-----------------|-----------------|-----------------|---------------|------|
-----------------|-----------------|-446688----------|-------4-4-2-4-|------|
-7---------------|-7-----6--6-4-6--|-44668899-7------|-7-----4-------|------|
-7---------------|-7-----6---------|-22446699-7------|-7-----2-------|------|
-5---------------|-5-4-3-4---------|-------77-5------|-5-4-3---------|------|

-----------|----------------|-----------------------------------------------|
-------77--|----------------|-----------------------------------------------|
-44668866--|----------------|-----------------------------------------------|
-44668844--|-9--99--9---9\2-|-----------------------------------------------|
-224466----|-9--99--9-------|-----------------------------------------------|
-----------|-7--77--7-------|-----------------------------------------------|

A
papa ga irami tarara
C#m
komakaku urusai
A
kare no waru kuji dake
B
zettai yurusanai

*Chorus*
------------|----------------|-------------|---------------|----------------|
------------|-9-10-9-12--109-|-------------|-----7-10-9----|----------------|
-9--9-7-9---|----------------|-8-----------|-8-9--------11-|----------------|
-9----------|----------------|-8-----------|---------------|----------------|
-7----------|----------------|-6-----------|---------------|----------------|
------------|----------------|-------------|---------------|----------------|

------------|--------------4-|-------------|--------------|-----------------|
------------|------------5---|-12----------|---10-9-10-12-|-----------------|
-6----------|---------6------|-11----------|--------------|-----------------|
-6----------|----------------|-9-----------|--------------|-----------------|
-4----------|----------------|-------------|--------------|-----------------|
------------|----------------|-------------|--------------|-----------------|

-----------|--------------|----------------|-----------------|--------------|
-10--------|-1010-1010----|-9-10-9-12--109-|-1010-10-1212-12-|--------------|
-9---------|--9-9--9-9----|----------------|------9-------11-|--------------|
-7---------|--7-7--7-7----|----------------|------7-------9--|--------------|
-----------|--------------|----------------|-----------------|--------------|
-----------|--------------|----------------|-----------------|--------------|

-----------|--------------|-----------|-------------------------------------|
-13--13----|--------------|-----------|-------------------------------------|
-12--12----|--------------|-7--7--7---|-------------------------------------|
-10--10----|--------------|-7--7--7---|-------------------------------------|
-----------|------25--2-5-|-5--5--5---|-------------------------------------|
-----------|-0---4---4----|-----------|-------------------------------------|

E              B
hacha mecha na jinsei janai yo
C#m          E
watashi nari kangaete koudou shiteru yo
A      F#m      G#m        C#m
kazoku no minna daisuki dakeredo
A      F#m      E
ai oikakeru sedai

*Verse1*
E
samishikute hora chotto nayande
D
denwa shite un chotto anshin
C#m
demo yappa aa hayaku aitai
C
yume ga fukuramu

*Riff*

*Verse2*
A
itoshikute hora chotto doki doki
C#m
kisu wo shite un kanari nattoku
A
demo yappa aa fuan ni naru na
B
koi wa muzukashii

*Riff*

*Verse2*
A
okotdazukai dake ja tarinai shi
C#m
jinsei yappa okane kakaru
A
baito shifuto mo chotto fuyasou
B
kare mo kanari ganbatteru shi

*Prechorus*
A
mama wa kyoumi honi de
C#m
kare wo yobi tagaru
A
ato de papa ga zettai
B
iroiro iu hazu yo

*Chorus*
E              B
mucha kucha na kareshi janai mon
C#m            E
honno choppiri kamigata hen dakedo soko ga
A      F#m      G#m        C#m
machi de medatte ninki mono da mon ne
A      F#m      E
ai katari tai sedai

*Solo*
------------------------|--------------------------------------------|------|
-----9-9-9/10--11--1111-|-------------7--------9------------11-11-11-|------|
-9-9--9-----------------|-8-----8^----6-65-----886----------10-10-10-|------|
--9---------------------|-8----6--5^6^----8--8-6--9106910/12-8--8-8--|------|
------------------------|-6--69--------------------------------------|------|
------------------------|--------------------------------------------|------|

-11-1198---11/14--1312------|-/16--16-191816---1614-----1214161819-|--------|
--------118-----------16vv\-|---------------19-----1716------------|--------|
----------------------------|--------------------------------------|--------|
----------------------------|--------------------------------------|--------|
----------------------------|--------------------------------------|--------|
----------------------------|--------------------------------------|--------|

-19--21--19---|----------------------------------|--------------------------|
--------------|-11-------------------------------|-99-11--------------------|
--------------|-10-10-8---------------10--8------|-88-10-8-/1010-108--------|
--------------|-8-------11-12-8-11-12-------12\8-|-66-8-------------118-----|
--------------|----------------------------------|--------------------------|
--------------|----------------------------------|--------------------------|

---------------------|-----------------------------------|------------------|
---------------------|-99-11-------------------------/11-|------------------|
---------------------|-88-10------------------6-8-6------|------------------|
-118-----------------|-66-8----------6-8/11-8-------6----|------------------|
----118-118----------|-----------6-8---------------------|------------------|
-----------119-9-6vv-|-------6-9-------------------------|------------------|

-------------------------------------|--------------------------------------|
-10/11-11-10/11-11-10/11-11----------|--------------------------------------|
-9-/10-10--9/10-10-9-/10-10--------8-|--------------------------------------|
----------------------------15\\\0-8-|--------------------------------------|
-----------------------------------6-|--------------------------------------|
-------------------------------------|--------------------------------------|

*key change down*

*Verse3*
D#         Bb           G
pasakon no gakkou ni ikitai na
Cm                   D#
shourai ni futari de omise dasu tame

E D# E F#

*key change up*

*Chorus*
E              B
hacha mecha na jinsei janai yo
C#m            E
watashi nari kangaete  koudou shiteru yo
A      F#m      G#m        C#m
kazoku no minna daisuki dakeredo
A      F#m      E
ai oikakeru sedai

*Verse1*
E
samishikute hora chotto nayande
D
denwa shite un chotto anshin
C#m
demo yappa aa hayaku aitai
C
yume ga fukuramu

E
itoshikute hora chotto doki doki
D
kisu wo shite un kanari nattoku
C#m
demo yappa aa fuan ni naru na
C
koi wa muzukashii

*Riff*