Morning Musume - Nanchatte Renai Text Guitar Tab

Learn the song with the online tablature player
Intro
-12-11-12-----------------|-12-16-17----------17-19|-21-19----------12----11-|
--------------------------|------------------------|-------------------------|
----------------11-13-14--|------------------------|-------------------------|
----------11-14-----------|----------------11-13-14|-------------------11-13-|
--------------------------|----------12-14---------|-------------11-12-------|
--------------------------|------------------------|-------12-14-------------|
          C#m                     A                      E

-12-14--------------------|---------------------|---------------------------|
--------------------------|---7--7--7-----------|---------------------------|
----------------9--11-13--|---8--8--8-----------|-------------------7-------|
-14----9--11-13-----------|---9--9--9-----------|----------7--9--10---------|
--------------------------|---9--9--9-----------|-7--9--10------------------|
--------------------------|---------------------|---------------------------|
    B                         B  B  B                               G

-------------|-------------------------|---------------------------------|
-------------|-------------------------|-----10--------------------------|
-------7--9--|-9--11-12-11-9-----11----|---------12--11------------------|
-9-10--------|----------------12----9--|-9---------------12--10--9-------|
-------------|-------------------------|---------------------------------|
-------------|-------------------------|---------------------------------|
          C                      Bm                       D

------------------------|--------------------------|-------------------------|
------------------------|-------10-----------------|-7-------12--10----------|
-9-11-12----------------|-11-12----------------7-9-|-----9------------11--9--|
--------------------7-9-|-----------7-9-10--10-----|-------------------------|
---------7-9-10--10-----|--------------------------|-------------------------|
------------------------|--------------------------|-------------------------|
      C                          D                           Bm

-------------------------------|--------|
-7-----------------------------|--------|
-----9-------------------------|--------|
---------7h9--9h10--9h10h12-12-|--------|
-------------------------------|--------|
-------------------------------|--------|
         Em         D

Em              C           Bm                  D
Akubi ga hitotsu dechau hodo tsumaranai koto ni natta na
C          Am                 Bm        Em Bm
Nanpa toka shinai de kureru kana shirakechau
Em              C       Bm                      D
Shibaraku ha genki na kyara de nantonaku ikitekita kedo
C             Am               Bm   D
Ki ga tsukeba iroke mo detekiteru mitai

   Am             G       D            Em
Aa nande nandarou watashi yuugata ni naru tabi
  Am        G           D
Nakitai kimochi ni naru aa

-------------------------|-------------------------------------------------|
-------------------------|-------------------------------------------------|
-------------------------|-------------------------------------------------|
-------------------------|-------------------------------------------------|
------/7---------/9------|-------------------------------------------------|
-5----------7------------|-------------------------------------------------|
Dakedo nandaka mendoukusai sono uchi Terebi wo kaika enai to
       Bm Bm Bm
Ikenai ne

Em              C       Bm                      D
Hanbaagaa kajiri nagara machiyuku hito wo nagameteta
C          Am                 Bm        Em Bm
Hontou ni waratteru ko nante iru no kana
Em              C       Bm                      D
Heddohon kara nagareteru oki ni no kyoku kurikaeshi
C             Am               Bm   D
Kono kashi ha watashi no koto utatteru

   Am             G       D            Em
Aa nande nandarou watashi sunao ni amaerarenai
  Am        G           D
Okaasan ni denwa shitai Aa

-------------------------|----------------------------------------|
-------------------------|----------------------------------------|
-------------------------|----------------------------------------|
-------------------------|----------------------------------------|
------/7---------/9------|----------------------------------------|
-5----------7------------|----------------------------------------|
Dakedo imi naku gonetarishinai datte Sonna no mottainai, You know?
       Bm Bm Bm
Aishitai

-------------------|-----------|---------------------|--------------------|
-------------------|---8-7-----|-8-------------------|-----8--------------|
--------7----------|-7---------|--7-7--------9-------|-7----------------7-|
-9-7-------------9-|-----------|-----10-109----------|------------4--7----|
-----10------------|-----------|---------------------|---------5----------|
-------------------|-----------|---------------------|--------------------|

-----------------|-----------------|-------------------|-------------------|
-----------------|-----------------|-------------------|-----7-------------|
-----------------|-----------------|-------------------|-7-9--9-7----------|
-----------------|----------2/17---|-17-17----16--16\5-|----------9-2/10\2-|
-----------------|-7-6-7-9---------|-------17----------|-------------------|
-0---------------|-----------------|-------------------|-------------------|

------------------|------------------------------|--------------------|
------------------|------------------------------|--------------------|
-9-9---7----------|------------------------------|--------------------|
-----9-----9-7----|-14--121316--1316----14-13-14-|-2/17---17-16-14----|
----------------9-|---14------14-----------------|-----------------17-|
------------------|------------------------------|--------------------|

-----------------|--------------------------------|
-----------------|--------------------------------|
-----------------|-9-9---9-9---9---9---9-9-9-9----|
-9-10-12-10-9----|------9-----9---9---9-----------|
--------------8--|--------------------------------|
-----------------|-----------------------------0--|

G#      C#      Cm      D#
C#      D#      Cm      Fm

E|---------16------15--16--18------|---------------------11--13--15--|
B|---------------------------------|-----------------------------16--|
G|-----------------10--12--13------|---------10--12--13----------15--|
D|-----10--11--13--------------8---|-10--11----------------------17--|
A|-13------------------------------|-----------------------------18--|
E|---------------------------------|---------------------------------|
                           D#                                    D#