Morrissey - Lazy Sunbathers Text Guitar Tab

Learn the song with the online tablature player
Key: E major

Intro

Guitar overdub starts of playing open string harmonics on 12th fret second and first string
and then D# C#

Intro/Chorus

        E                                               F#m7
e|---------------------------------------------------------------------------|
B|--------------9----------------------------10------------------------------|
G|----------9-------9-------------------9----------9-------------------------|
D|------9---------------9---------11--------------------11-------------------|
A|--7------------------------9-----------------------------------------------|
E|---------------------------------------------------------------------------|

        AMaj7                                    B

e|-------------------------------------5--7--4-------------------------------|
B|----------------9-----------------4----------------------------------------|
G|------------9------9-----------4-------------------------------------------|
D|-------11-------------11----4----------------------------------------------|
A|--12-----------------------------------------------------------------------|
E|---------------------------------------------------------------------------|

Alternate way of playing intro/ chorus (one position)

        E                                       F#m7                    AMaj7   B
e|------------4-----------------5------------------4-----------------5--7---4--|
B|---------5-----5-----------5-----5------------5-----5-----------4------------|
G|------4-----------4-----6-----------6------6-----------6-----4---------------|
D|---------------------4-----------------7------------------4------------------|
A|--7--------------------------------------------------------------------------|
E|-(0)-------------------------------------------------------------------------|

Verse

        C#m9    G#m7    AMaj7   G#m7

e|---4-------4---------4------4----------------------------------------------|
B|---4-------4---------5------4----------------------------------------------|
G|---4-------4---------6------4----------------------------------------------|
D|---2-------4---------7------4----------------------------------------------|
A|---4-------6---------x------6----------------------------------------------|
E|-----------4---------5------4----------------------------------------------|

Post Chorus

        C#m             AMaj7                   E

e|---4--------4--------------------------------------------------------------|
B|---5--------5--------------------------5---4---5---------------------------|
G|---6--------6-----------------------4----------4---------------------------|
D|---6--------7--------------------6-------------6---------------------------|
A|---4--------0-----------------7----------------7---------------------------|
E|---------------------------------------------------------------------------|

Outro

        C#m             AMaj7   C#m             A

e|---4--------4--------------------------------------------------------------|
B|---5--------5--------------------------------------------------------------|
G|---6--------6--------------------------------------------------------------|
D|---6--------7--------------------------------------------------------------|
A|---4--------0--------------------------------------------------------------|
E|---------------------------------------------------------------------------|

| /  slide up
| \  slide down
| h  hammer-on
| p  pull-off
| ~  vibrato
| +  harmonic
| x  Mute note