Mortification - Confused Belief Text Guitar Tab

Learn song with the online tabulature player
Confused Belief
Mortification
Words by Bill Rice, Music by Jason Campbell
Copyright 1995 Intense Records
tabbed by James Donnelly
conorlarkin@hotmail.com

Riff A        play the ( ) every other time
|--------------------------------------------------------------|
|--------------------------------------------------------------|
|--------------------------------------------------------------|
|--------------------------------------------------------------|
|-----------2-3--------3------2--------------------------------|
|-0-0-0-1-4------0-0-0---4(4)----------------------------------|

Riff B                            1., 3.   2.       4.
|--------------------------------|-------|---------|----------|
|--------------------------------|-------|---------|----------|
|--------------------------------|-------|---------|----------|
|--------------------------------|-3--6--|--6/7\6--|---6--7---|
|--------------------------------|-3--6--|--6/7\6--|---6--7---|
|--0000-0000-0000-0000-0000-0000-|-1--4--|--4/5\4--|---4--5---|

Riff C                           1., 3.        2.,4.
|-------------------------------|------------|-------------------|
|-------------------------------|------------|-------------------|
|-------------------------------|------------|-------------------|
|-------------------------------|------------|---2---7-----------|
|-------------------------------|------------|---2---7-----------|
|-4444-4444-4444-4444-4444-4444-|-5555-7777--|---0---5-----------|

Riff D

|-----------|--------------------------------------------------|
|-----------|--------------------------------------------------|
|*---------*|--------------------------------------------------|
|*---------*|----------2---------------------------------------|
|-----------|----------2----------------2h3--------------------|
|--0-0-0-0--|--0-0-0-0---0-0-0-0-0-0-0------4------------------|

Riff E
|---------------------|--------------------------------------|
|---------------------|--------------------------------------|
|---------------------|--------------------------------------|
|--5-5-5-5--6--5-5-5--|--5-5-5-5--3-3-3-3--------------------|
|--5-5-5-5--6--5-5-5--|--5-5-5-5--3-3-3-3--------------------|
|--3-3-3-3--4--3-3-3--|--3-3-3-3--1-1-1-1--------------------|


Riff A
Riff B
Within the chambers of our mind exists deceit
Framework of formed man holds; the choice of life

Riff C
Who we are where we come from, where we must go?
Tiring questions we all persist to know, do we really know?

Riff A
Depths to life; grasping to obtain;
Confused mind, trying to arrange;
Confused belief searching for peace
A confusion, in what you believe

Riff B
We exist with a longing for truth
Something that's tangible in sight,
Extracted proof

Riff D
Ever present need to understand
Meanings brought christ has wrought
Wiped away by a nail scarred hand.
Riff E
Known in our created hearts
Our freewill is where change starts
Hung from a tree of regret
Seek the one that gives dust breath

Riff D
Ever present need to be fulfilled
Gaining access to life
For, our pain, yeshua's blood spilled.


Conorlarkin@hotmail.com