Mortification - Dark Allusions Text Guitar Tab

Learn the song with the online tablature player
Its not mutch, but its a start.
Please if you have a compleet version,
ore a better one, e-mail me.

Riff 3 is totally wrong. :)
Grind to His glory

---|-------------------------------------------------------------------------|
-1-|-----h---h---h---h----h--------------------------h---h---h---h---h-------|
---|*--3------------------------------------------3------------------------*-|
---|*--3------------------------------------------3------------------------*-|
---|---1------------------------2--2----2--2------1--------------------------|
---|----------------------------0--0----0--0---------------------------------|
       Hold note    p.m.        -  -    -  -      Hold note

---|-------------------------------------------------------------------------|
-2-|-------------------------------------------------------------------------|
---|*------------------------------------------------------------------------|
---|*------------------5--4------------------5--7------------------5--4------|
---|---2---2-2-2--2----3--2---2---2-2-2--2---3--5---2---2-2-2--2---3--2------|
---|---0---0-0-0--0-----------0---0-0-0--0----------0---0-0-0--0-------------|
 p.m.      - - -  -               - - -  -              - - -  -

---|-------------------------------------------------------------------------|
-3-|-------------------------------------------------------------------------|
---|-------------------------------------------------------------------------|
---|---5-5-5-5-5----7-7-7-7-7----5-5-5-5-5----4-4-4-4-4----------------------|
---|---3-3-3-3-3----5-5-5-5-5----3-3-3-3-3----2-2-2-2-2----------------------|
---|-------------------------------------------------------------------------|